  0
SECTION
  2
HEADER
  9
$ACADVER
  1
AC1014
  9
$ACADMAINTVER
 70
     5
  9
$DWGCODEPAGE
  3
ANSI_1252
  9
$INSBASE
 10
0.0
 20
0.0
 30
0.0
  9
$EXTMIN
 10
-29.680004
 20
-8.841773
 30
0.0
  9
$EXTMAX
 10
509.188082
 20
447.733836
 30
0.0
  9
$LIMMIN
 10
0.0
 20
0.0
  9
$LIMMAX
 10
420.0
 20
297.0
  9
$ORTHOMODE
 70
     1
  9
$REGENMODE
 70
     1
  9
$FILLMODE
 70
     1
  9
$QTEXTMODE
 70
     0
  9
$MIRRTEXT
 70
     0
  9
$DRAGMODE
 70
     2
  9
$LTSCALE
 40
1.0
  9
$OSMODE
 70
    39
  9
$ATTMODE
 70
     1
  9
$TEXTSIZE
 40
3.5
  9
$TRACEWID
 40
0.05
  9
$TEXTSTYLE
  7
ROMANS
  9
$CLAYER
  8
0
  9
$CELTYPE
  6
BYLAYER
  9
$CECOLOR
 62
   256
  9
$CELTSCALE
 40
1.0
  9
$DELOBJ
 70
     1
  9
$DISPSILH
 70
     0
  9
$DIMSCALE
 40
1.0
  9
$DIMASZ
 40
2.5
  9
$DIMEXO
 40
1.5
  9
$DIMDLI
 40
5.0
  9
$DIMRND
 40
0.0
  9
$DIMDLE
 40
0.0
  9
$DIMEXE
 40
1.0
  9
$DIMTP
 40
0.0
  9
$DIMTM
 40
0.0
  9
$DIMTXT
 40
3.0
  9
$DIMCEN
 40
0.0
  9
$DIMTSZ
 40
0.0
  9
$DIMTOL
 70
     0
  9
$DIMLIM
 70
     0
  9
$DIMTIH
 70
     0
  9
$DIMTOH
 70
     0
  9
$DIMSE1
 70
     0
  9
$DIMSE2
 70
     0
  9
$DIMTAD
 70
     1
  9
$DIMZIN
 70
     8
  9
$DIMBLK
  1

  9
$DIMASO
 70
     1
  9
$DIMSHO
 70
     1
  9
$DIMPOST
  1

  9
$DIMAPOST
  1

  9
$DIMALT
 70
     0
  9
$DIMALTD
 70
     2
  9
$DIMALTF
 40
25.4
  9
$DIMLFAC
 40
1.0
  9
$DIMTOFL
 70
     1
  9
$DIMTVP
 40
0.0
  9
$DIMTIX
 70
     0
  9
$DIMSOXD
 70
     0
  9
$DIMSAH
 70
     0
  9
$DIMBLK1
  1

  9
$DIMBLK2
  1

  9
$DIMSTYLE
  2
STANDAARD
  9
$DIMCLRD
 70
   256
  9
$DIMCLRE
 70
   256
  9
$DIMCLRT
 70
     2
  9
$DIMTFAC
 40
0.75
  9
$DIMGAP
 40
1.0
  9
$DIMJUST
 70
     0
  9
$DIMSD1
 70
     0
  9
$DIMSD2
 70
     0
  9
$DIMTOLJ
 70
     1
  9
$DIMTZIN
 70
     8
  9
$DIMALTZ
 70
     8
  9
$DIMALTTZ
 70
     8
  9
$DIMFIT
 70
     0
  9
$DIMUPT
 70
     0
  9
$DIMUNIT
 70
     2
  9
$DIMDEC
 70
     2
  9
$DIMTDEC
 70
     2
  9
$DIMALTU
 70
     2
  9
$DIMALTTD
 70
     2
  9
$DIMTXSTY
  7
ROMANS
  9
$DIMAUNIT
 70
     0
  9
$LUNITS
 70
     2
  9
$LUPREC
 70
     2
  9
$SKETCHINC
 40
0.1
  9
$FILLETRAD
 40
10.0
  9
$AUNITS
 70
     0
  9
$AUPREC
 70
     2
  9
$MENU
  1
wtb2
  9
$ELEVATION
 40
0.0
  9
$PELEVATION
 40
0.0
  9
$THICKNESS
 40
0.0
  9
$LIMCHECK
 70
     0
  9
$BLIPMODE
 70
     0
  9
$CHAMFERA
 40
1.6
  9
$CHAMFERB
 40
2.5
  9
$CHAMFERC
 40
0.0
  9
$CHAMFERD
 40
0.0
  9
$SKPOLY
 70
     0
  9
$TDCREATE
 40
2452466.423157523
  9
$TDUPDATE
 40
2452466.673222662
  9
$TDINDWG
 40
0.0031924537
  9
$TDUSRTIMER
 40
0.0031924537
  9
$USRTIMER
 70
     1
  9
$ANGBASE
 50
0.0
  9
$ANGDIR
 70
     0
  9
$PDMODE
 70
     3
  9
$PDSIZE
 40
0.0
  9
$PLINEWID
 40
0.0
  9
$COORDS
 70
     2
  9
$SPLFRAME
 70
     0
  9
$SPLINETYPE
 70
     6
  9
$SPLINESEGS
 70
     8
  9
$ATTDIA
 70
     0
  9
$ATTREQ
 70
     1
  9
$HANDLING
 70
     1
  9
$HANDSEED
  5
112A
  9
$SURFTAB1
 70
     6
  9
$SURFTAB2
 70
     6
  9
$SURFTYPE
 70
     6
  9
$SURFU
 70
     6
  9
$SURFV
 70
     6
  9
$UCSNAME
  2

  9
$UCSORG
 10
0.0
 20
0.0
 30
0.0
  9
$UCSXDIR
 10
1.0
 20
0.0
 30
0.0
  9
$UCSYDIR
 10
0.0
 20
1.0
 30
0.0
  9
$PUCSNAME
  2

  9
$PUCSORG
 10
0.0
 20
0.0
 30
0.0
  9
$PUCSXDIR
 10
1.0
 20
0.0
 30
0.0
  9
$PUCSYDIR
 10
0.0
 20
1.0
 30
0.0
  9
$USERI1
 70
     0
  9
$USERI2
 70
     0
  9
$USERI3
 70
     0
  9
$USERI4
 70
     0
  9
$USERI5
 70
     0
  9
$USERR1
 40
0.0
  9
$USERR2
 40
0.0
  9
$USERR3
 40
0.0
  9
$USERR4
 40
0.0
  9
$USERR5
 40
0.0
  9
$WORLDVIEW
 70
     1
  9
$SHADEDGE
 70
     3
  9
$SHADEDIF
 70
    70
  9
$TILEMODE
 70
     1
  9
$MAXACTVP
 70
    16
  9
$PINSBASE
 10
0.0
 20
0.0
 30
0.0
  9
$PLIMCHECK
 70
     0
  9
$PEXTMIN
 10
1.000000E+20
 20
1.000000E+20
 30
1.000000E+20
  9
$PEXTMAX
 10
-1.000000E+20
 20
-1.000000E+20
 30
-1.000000E+20
  9
$PLIMMIN
 10
0.0
 20
0.0
  9
$PLIMMAX
 10
12.0
 20
9.0
  9
$UNITMODE
 70
     0
  9
$VISRETAIN
 70
     0
  9
$PLINEGEN
 70
     0
  9
$PSLTSCALE
 70
     0
  9
$TREEDEPTH
 70
  3020
  9
$PICKSTYLE
 70
     1
  9
$CMLSTYLE
  2
STANDARD
  9
$CMLJUST
 70
     0
  9
$CMLSCALE
 40
1.0
  9
$PROXYGRAPHICS
 70
     1
  9
$MEASUREMENT
 70
     1
  0
ENDSEC
  0
SECTION
  2
CLASSES
  0
CLASS
  1
LWPOLYLINE
  2
AcDbPolyline
  3
"AutoCAD"
 90
        0
280
     0
281
     1
  0
CLASS
  1
AMLOADER
  2
AMLoader
  3
AMAcad
 90
        0
280
     0
281
     0
  0
ENDSEC
  0
SECTION
  2
TABLES
  0
TABLE
  2
VPORT
  5
8
100
AcDbSymbolTable
 70
     2
  0
VPORT
  5
1129
100
AcDbSymbolTableRecord
100
AcDbViewportTableRecord
  2
*ACTIVE
 70
     0
 10
0.0
 20
0.0
 11
1.0
 21
1.0
 12
239.754039
 22
219.446032
 13
0.0
 23
0.0
 14
2.5
 24
2.5
 15
5.0
 25
5.0
 16
0.0
 26
0.0
 36
1.0
 17
0.0
 27
0.0
 37
0.0
 40
461.715297
 41
1.650376
 42
50.0
 43
0.0
 44
0.0
 50
0.0
 51
0.0
 71
     0
 72
 20000
 73
     1
 74
     0
 75
     0
 76
     0
 77
     0
 78
     1
  0
ENDTAB
  0
TABLE
  2
LTYPE
  5
5
100
AcDbSymbolTable
 70
     1
  0
LTYPE
  5
12
100
AcDbSymbolTableRecord
100
AcDbLinetypeTableRecord
  2
BYBLOCK
 70
     0
  3

 72
    65
 73
     0
 40
0.0
  0
LTYPE
  5
13
100
AcDbSymbolTableRecord
100
AcDbLinetypeTableRecord
  2
BYLAYER
 70
     0
  3

 72
    65
 73
     0
 40
0.0
  0
LTYPE
  5
14
100
AcDbSymbolTableRecord
100
AcDbLinetypeTableRecord
  2
CONTINUOUS
 70
     0
  3
Solid line
 72
    65
 73
     0
 40
0.0
  0
ENDTAB
  0
TABLE
  2
LAYER
  5
2
100
AcDbSymbolTable
 70
     4
  0
LAYER
  5
F
100
AcDbSymbolTableRecord
100
AcDbLayerTableRecord
  2
0
 70
     0
 62
     8
  6
CONTINUOUS
  0
LAYER
  5
99A
100
AcDbSymbolTableRecord
100
AcDbLayerTableRecord
  2
VHH-050
 70
     0
 62
     4
  6
CONTINUOUS
  0
LAYER
  5
99B
100
AcDbSymbolTableRecord
100
AcDbLayerTableRecord
  2
VHH-025
 70
     0
 62
     7
  6
CONTINUOUS
  0
LAYER
  5
99C
100
AcDbSymbolTableRecord
100
AcDbLayerTableRecord
  2
VHH-070
 70
     0
 62
     4
  6
CONTINUOUS
  0
ENDTAB
  0
TABLE
  2
STYLE
  5
3
100
AcDbSymbolTable
 70
     2
  0
STYLE
  5
10
100
AcDbSymbolTableRecord
100
AcDbTextStyleTableRecord
  2
STANDARD
 70
     0
 40
0.0
 41
1.0
 50
0.0
 71
     0
 42
15.0
  3
txt
  4

  0
STYLE
  5
1C
100
AcDbSymbolTableRecord
100
AcDbTextStyleTableRecord
  2
ROMANS
 70
     0
 40
0.0
 41
1.0
 50
0.0
 71
     0
 42
3.5
  3
romans
  4

  0
ENDTAB
  0
TABLE
  2
VIEW
  5
6
100
AcDbSymbolTable
 70
     2
  0
VIEW
  5
600
100
AcDbSymbolTableRecord
100
AcDbViewTableRecord
  2
VIEW0
 70
     0
 40
297.0
 10
210.0
 20
148.5
 41
420.0
 11
0.0
 21
0.0
 31
1.0
 12
0.0
 22
0.0
 32
0.0
 42
50.0
 43
0.0
 44
0.0
 50
0.0
 71
     0
  0
VIEW
  5
601
100
AcDbSymbolTableRecord
100
AcDbViewTableRecord
  2
VIEW1
 70
     0
 40
297.0
 10
210.0
 20
148.5
 41
420.0
 11
0.0
 21
0.0
 31
1.0
 12
0.0
 22
0.0
 32
0.0
 42
50.0
 43
0.0
 44
0.0
 50
0.0
 71
     0
  0
ENDTAB
  0
TABLE
  2
UCS
  5
7
100
AcDbSymbolTable
 70
     0
  0
ENDTAB
  0
TABLE
  2
APPID
  5
9
100
AcDbSymbolTable
 70
     3
  0
APPID
  5
11
100
AcDbSymbolTableRecord
100
AcDbRegAppTableRecord
  2
ACAD
 70
     0
  0
APPID
  5
37E
100
AcDbSymbolTableRecord
100
AcDbRegAppTableRecord
  2
ADMEPROFILELINK
 70
     0
  0
APPID
  5
974
100
AcDbSymbolTableRecord
100
AcDbRegAppTableRecord
  2
AMACAD
 70
     0
  0
ENDTAB
  0
TABLE
  2
DIMSTYLE
  5
A
100
AcDbSymbolTable
 70
     2
  0
DIMSTYLE
105
4E
100
AcDbSymbolTableRecord
100
AcDbDimStyleTableRecord
  2
STANDARD
 70
     0
  3

  4

  5

  6

  7

 40
1.0
 41
2.2
 42
1.5
 43
7.0
 44
1.2
 45
0.0
 46
0.0
 47
0.0
 48
0.0
140
2.5
141
-3.0
142
0.0
143
25.4
144
1.0
145
0.0
146
1.0
147
0.5
 71
     0
 72
     0
 73
     0
 74
     0
 75
     0
 76
     0
 77
     1
 78
     8
170
     0
171
     2
172
     1
173
     0
174
     0
175
     0
176
   256
177
   256
178
     2
270
     2
271
     4
272
     4
273
     2
274
     2
340
10
275
     0
280
     0
281
     0
282
     0
283
     1
284
     0
285
     0
286
     0
287
     3
288
     0
  0
DIMSTYLE
105
190
100
AcDbSymbolTableRecord
100
AcDbDimStyleTableRecord
  2
STANDAARD
 70
     0
  3

  4

  5

  6

  7

 40
1.0
 41
2.5
 42
1.5
 43
5.0
 44
1.0
 45
0.0
 46
0.0
 47
0.0
 48
0.0
140
3.0
141
0.0
142
0.0
143
25.4
144
1.0
145
0.0
146
0.75
147
1.0
 71
     0
 72
     0
 73
     0
 74
     0
 75
     0
 76
     0
 77
     1
 78
     8
170
     0
171
     2
172
     1
173
     0
174
     0
175
     0
176
   256
177
   256
178
     2
270
     2
271
     2
272
     2
273
     2
274
     2
340
1C
275
     0
280
     0
281
     0
282
     0
283
     1
284
     8
285
     8
286
     8
287
     0
288
     0
  0
ENDTAB
  0
TABLE
  2
BLOCK_RECORD
  5
1
100
AcDbSymbolTable
 70
     4
  0
BLOCK_RECORD
  5
18
100
AcDbSymbolTableRecord
100
AcDbBlockTableRecord
  2
*MODEL_SPACE
  0
BLOCK_RECORD
  5
15
100
AcDbSymbolTableRecord
100
AcDbBlockTableRecord
  2
*PAPER_SPACE
  0
BLOCK_RECORD
  5
1B2
100
AcDbSymbolTableRecord
100
AcDbBlockTableRecord
  2
TEK_INFO
  0
BLOCK_RECORD
  5
98B
100
AcDbSymbolTableRecord
100
AcDbBlockTableRecord
  2
A$C7A7B4A19
  0
BLOCK_RECORD
  5
990
100
AcDbSymbolTableRecord
100
AcDbBlockTableRecord
  2
A$C605007EB
  0
BLOCK_RECORD
  5
995
100
AcDbSymbolTableRecord
100
AcDbBlockTableRecord
  2
A$C32063EEB
  0
ENDTAB
  0
ENDSEC
  0
SECTION
  2
BLOCKS
  0
BLOCK
  5
46
100
AcDbEntity
  8
0
100
AcDbBlockBegin
  2
*MODEL_SPACE
 70
     0
 10
0.0
 20
0.0
 30
0.0
  3
*MODEL_SPACE
  1

  0
ENDBLK
  5
47
100
AcDbEntity
  8
0
100
AcDbBlockEnd
  0
BLOCK
  5
44
100
AcDbEntity
 67
     1
  8
0
100
AcDbBlockBegin
  2
*PAPER_SPACE
 70
     0
 10
0.0
 20
0.0
 30
0.0
  3
*PAPER_SPACE
  1

  0
ENDBLK
  5
45
100
AcDbEntity
 67
     1
  8
0
100
AcDbBlockEnd
  0
BLOCK
  5
1B9
100
AcDbEntity
  8
0
100
AcDbBlockBegin
  2
TEK_INFO
 70
     2
 10
0.0
 20
0.0
 30
0.0
  3
TEK_INFO
  1

  0
ATTDEF
  5
276
100
AcDbEntity
  8
0
100
AcDbText
 10
15.0
 20
31.5
 30
0.0
 40
2.5
  1
A3
  7
ROMANS
100
AcDbAttributeDefinition
  3

  2
FORMAAT
 70
     9
  0
ATTDEF
  5
277
100
AcDbEntity
  8
0
100
AcDbText
 10
15.0
 20
27.5
 30
0.0
 40
2.5
  1
hor
  7
ROMANS
100
AcDbAttributeDefinition
  3

  2
POSITIE
 70
     9
  0
ATTDEF
  5
278
100
AcDbEntity
  8
0
100
AcDbText
 10
15.0
 20
23.5
 30
0.0
 40
2.5
  1
1
  7
ROMANS
100
AcDbAttributeDefinition
  3

  2
AANTAL
 70
     9
  0
ATTDEF
  5
279
100
AcDbEntity
  8
0
100
AcDbText
 10
15.0
 20
19.5
 30
0.0
 40
2.5
  1
1
  7
ROMANS
100
AcDbAttributeDefinition
  3

  2
TEKSCHAAL
 70
     9
  0
ATTDEF
  5
27A
100
AcDbEntity
  8
0
100
AcDbText
 10
15.0
 20
15.5
 30
0.0
 40
2.5
  1
1
  7
ROMANS
100
AcDbAttributeDefinition
  3

  2
SNAPSCHAAL
 70
     9
  0
ATTDEF
  5
27B
100
AcDbEntity
  8
0
100
AcDbText
 10
15.0
 20
11.5
 30
0.0
 40
2.5
  1
1
  7
ROMANS
100
AcDbAttributeDefinition
  3

  2
BLADAANTAL
 70
     9
  0
ENDBLK
  5
1BA
100
AcDbEntity
  8
0
100
AcDbBlockEnd
  0
BLOCK
  5
98E
100
AcDbEntity
  8
0
100
AcDbBlockBegin
  2
A$C7A7B4A19
 70
     0
 10
0.0
 20
0.0
 30
0.0
  3
A$C7A7B4A19
  1

  0
LINE
  5
98C
100
AcDbEntity
  8
VHH-050
100
AcDbLine
 10
0.000002
 20
17.677669
 30
0.0
 11
35.355341
 21
17.677669
 31
0.0
  0
LINE
  5
98D
100
AcDbEntity
  8
VHH-050
100
AcDbLine
 10
17.677671
 20
-0.000001
 30
0.0
 11
17.677671
 21
35.355338
 31
0.0
  0
ENDBLK
  5
98F
100
AcDbEntity
  8
0
100
AcDbBlockEnd
  0
BLOCK
  5
993
100
AcDbEntity
  8
0
100
AcDbBlockBegin
  2
A$C605007EB
 70
     0
 10
0.0
 20
0.0
 30
0.0
  3
A$C605007EB
  1

  0
LINE
  5
991
100
AcDbEntity
  8
VHH-050
100
AcDbLine
 10
0.000002
 20
25.000002
 30
0.0
 11
25.000002
 21
0.000002
 31
0.0
  0
LINE
  5
992
100
AcDbEntity
  8
VHH-050
100
AcDbLine
 10
0.000002
 20
0.000002
 30
0.0
 11
25.000002
 21
25.000002
 31
0.0
  0
ENDBLK
  5
994
100
AcDbEntity
  8
0
100
AcDbBlockEnd
  0
BLOCK
  5
998
100
AcDbEntity
  8
0
100
AcDbBlockBegin
  2
A$C32063EEB
 70
     0
 10
0.0
 20
0.0
 30
0.0
  3
A$C32063EEB
  1

  0
CIRCLE
  5
996
100
AcDbEntity
  8
VHH-050
100
AcDbCircle
 10
8.838839
 20
8.838837
 30
0.0
 40
1.838835
  0
CIRCLE
  5
997
100
AcDbEntity
  8
VHH-050
100
AcDbCircle
 10
8.838839
 20
8.838837
 30
0.0
 40
8.838835
  0
ENDBLK
  5
999
100
AcDbEntity
  8
0
100
AcDbBlockEnd
  0
ENDSEC
  0
SECTION
  2
ENTITIES
  0
INSERT
  5
27C
100
AcDbEntity
  8
0
100
AcDbBlockReference
 66
     1
  2
TEK_INFO
 10
0.0
 20
0.0
 30
0.0
  0
ATTRIB
  5
27D
100
AcDbEntity
  8
0
100
AcDbText
 10
15.0
 20
31.5
 30
0.0
 40
2.5
  1
A3
  7
ROMANS
100
AcDbAttribute
  2
FORMAAT
 70
     9
  0
ATTRIB
  5
27E
100
AcDbEntity
  8
0
100
AcDbText
 10
15.0
 20
27.5
 30
0.0
 40
2.5
  1
hor
  7
ROMANS
100
AcDbAttribute
  2
POSITIE
 70
     9
  0
ATTRIB
  5
27F
100
AcDbEntity
  8
0
100
AcDbText
 10
15.0
 20
23.5
 30
0.0
 40
2.5
  1
1
  7
ROMANS
100
AcDbAttribute
  2
AANTAL
 70
     9
  0
ATTRIB
  5
280
100
AcDbEntity
  8
0
100
AcDbText
 10
15.0
 20
19.5
 30
0.0
 40
2.5
  1
1
  7
ROMANS
100
AcDbAttribute
  2
TEKSCHAAL
 70
     9
  0
ATTRIB
  5
281
100
AcDbEntity
  8
0
100
AcDbText
 10
15.0
 20
15.5
 30
0.0
 40
2.5
  1
1
  7
ROMANS
100
AcDbAttribute
  2
SNAPSCHAAL
 70
     9
  0
ATTRIB
  5
282
100
AcDbEntity
  8
0
100
AcDbText
 10
15.0
 20
11.5
 30
0.0
 40
2.5
  1
1
  7
ROMANS
100
AcDbAttribute
  2
BLADAANTAL
 70
     9
  0
SEQEND
  5
283
100
AcDbEntity
  8
0
  0
ARC
  5
D83
100
AcDbEntity
  8
VHH-025
100
AcDbCircle
 10
427.026881
 20
153.392952
 30
0.0
 40
10.0
100
AcDbArc
 50
200.0
 51
230.0
  0
LINE
  5
D84
100
AcDbEntity
  8
VHH-025
100
AcDbLine
 10
418.363737
 20
141.188667
 30
0.0
 11
415.065168
 21
148.262472
 31
0.0
  0
ARC
  5
D85
100
AcDbEntity
  8
VHH-025
100
AcDbCircle
 10
433.930565
 20
146.901031
 30
0.0
 40
0.5
100
AcDbArc
 50
289.985089
 51
15.0
  0
LINE
  5
D86
100
AcDbEntity
  8
VHH-025
100
AcDbLine
 10
428.68538
 20
142.863454
 30
0.0
 11
429.780521
 21
149.074306
 31
0.0
  0
SPLINE
  5
D89
100
AcDbEntity
  8
VHH-025
100
AcDbSpline
210
0.0
220
0.0
230
1.0
 70
     8
 71
     3
 72
    22
 73
    18
 74
    16
 42
0.0000001
 43
0.0000001
 44
0.0000000001
 40
0.0
 40
0.0
 40
0.0
 40
0.0
 40
18.96097446325756
 40
42.65108648039076
 40
66.30098948459862
 40
94.70816762102359
 40
132.6718217238831
 40
160.9343204565804
 40
189.1070753562885
 40
217.2937242282164
 40
236.1380332244872
 40
255.1012067380109
 40
274.1327188312358
 40
288.3336699134919
 40
293.0716947717698
 40
295.4555487427821
 40
297.8394027137943
 40
297.8394027137943
 40
297.8394027137943
 40
297.8394027137943
 10
350.0180696146999
 20
357.8045062293786
 30
0.0
 10
351.1891425682659
 20
351.5940893386992
 30
0.0
 10
353.8233707781177
 20
337.6242889786531
 30
0.0
 10
358.0814078237741
 20
315.9280802299625
 30
0.0
 10
361.0813043640623
 20
290.8421922837934
 30
0.0
 10
363.5560719019055
 20
260.9278617288444
 30
0.0
 10
363.5677923591657
 20
229.3255026432662
 30
0.0
 10
361.0618306193558
 20
197.9492974946754
 30
0.0
 10
357.5272008957107
 20
169.9390750186095
 30
0.0
 10
352.2652162325845
 20
145.4109703355706
 30
0.0
 10
347.0262197549706
 20
124.0399608674727
 30
0.0
 10
341.3860437324888
 20
105.9439834231599
 30
0.0
 10
335.2012692198972
 20
89.64927386541901
 30
0.0
 10
332.3628637963159
 20
77.29825878084541
 30
0.0
 10
330.9666612090005
 20
70.31940234780477
 30
0.0
 10
330.6983886369657
 20
67.16007342671233
 30
0.0
 10
330.5341049796013
 20
65.57951800935555
 30
0.0
 10
330.4519631509192
 20
64.78924030067719
 30
0.0
 11
350.0180696146999
 21
357.8045062293786
 31
0.0
 11
353.5520291852262
 21
339.1757735201954
 31
0.0
 11
357.7921318145454
 21
315.8682009937147
 31
0.0
 11
360.7627512310264
 21
292.4056066701778
 31
0.0
 11
362.9606103549667
 21
264.0835801723105
 31
0.0
 11
362.988583146378
 21
226.1199363750602
 31
0.0
 11
360.8439837722562
 21
197.9389227641158
 31
0.0
 11
357.1306423897404
 21
170.0119606232756
 31
0.0
 11
351.4524711551839
 21
142.4031659002093
 31
0.0
 11
346.8492615296945
 21
124.1297304626477
 31
0.0
 11
341.2105246253795
 21
106.0243004531748
 31
0.0
 11
335.105596667965
 21
87.99853258633083
 31
0.0
 11
331.7542309949712
 21
74.19870071175683
 31
0.0
 11
330.9299498677264
 21
69.53292744455575
 31
0.0
 11
330.6909565093228
 21
67.16108387261647
 31
0.0
 11
330.4519631509192
 21
64.78924030067719
 31
0.0
  0
SPLINE
  5
D8A
100
AcDbEntity
  8
VHH-025
100
AcDbSpline
210
0.0
220
0.0
230
1.0
 70
     8
 71
     3
 72
    20
 73
    16
 74
     0
 42
0.0000001
 43
0.0000001
 40
81.08913725459736
 40
81.08913725459736
 40
81.08913725459736
 40
81.08913725459736
 40
83.27038407458527
 40
95.13966726368968
 40
98.75816666673484
 40
119.4535408875664
 40
131.8464439121559
 40
138.3787297121166
 40
195.6146142919679
 40
217.0451355660509
 40
256.7570760748731
 40
276.7514675103849
 40
289.0074746257636
 40
297.1463274862857
 40
303.7076825123679
 40
303.7076825123679
 40
303.7076825123679
 40
303.7076825123679
 10
374.8418392292023
 20
277.7088858277511
 30
0.0
 10
374.9224465004936
 20
276.9845893538022
 30
0.0
 10
375.4465975735092
 20
272.318832829962
 30
0.0
 10
376.1534273671313
 20
266.4505977032131
 30
0.0
 10
376.404020333679
 20
254.7078146386875
 30
0.0
 10
377.0111125705188
 20
243.2989815332257
 30
0.0
 10
377.0111318739291
 20
227.18095814778
 30
0.0
 10
377.0032069241969
 20
203.5871999674454
 30
0.0
 10
373.8228829010877
 20
175.0472372490239
 30
0.0
 10
365.3586865697416
 20
136.5334321633708
 30
0.0
 10
357.6106630515678
 20
110.5386858085603
 30
0.0
 10
348.7057061253508
 20
88.26737261886046
 30
0.0
 10
343.5077604428079
 20
75.83502147515173
 30
0.0
 10
341.3240464252285
 20
67.06288427002618
 30
0.0
 10
341.0232167052236
 20
62.1650320464023
 30
0.0
 10
340.888943053409
 20
59.97890328193989
 30
0.0
  0
LWPOLYLINE
  5
D8B
100
AcDbEntity
  8
VHH-025
100
AcDbPolyline
 90
        8
 70
     1
 43
0.0
 10
259.900015
 20
421.69641
 10
1.0
 20
421.69641
 42
0.414214
 10
0.0
 20
420.69641
 10
0.0
 20
58.5
 42
0.414214
 10
1.0
 20
57.5
 10
259.900015
 20
57.5
 42
0.414214
 10
260.900015
 20
58.5
 10
260.900015
 20
420.69641
 42
0.414214
  0
LWPOLYLINE
  5
D8D
100
AcDbEntity
  8
VHH-025
100
AcDbPolyline
 90
       10
 70
     0
 43
0.0
 10
317.419018
 20
20.5
 10
331.0
 20
20.5
 42
0.414214
 10
332.0
 20
21.5
 10
332.0
 20
56.5
 42
0.414214
 10
331.0
 20
57.5
 10
1.0
 20
57.5
 42
0.414214
 10
0.0
 20
56.5
 10
0.0
 20
21.5
 42
0.414214
 10
1.0
 20
20.5
 10
14.549759
 20
20.5
  0
SPLINE
  5
D8E
100
AcDbEntity
  8
VHH-025
100
AcDbSpline
210
0.0
220
0.0
230
1.0
 70
     8
 71
     3
 72
    11
 73
     7
 74
     5
 42
0.0000001
 43
0.0000001
 44
0.0000000001
 40
0.0
 40
0.0
 40
0.0
 40
0.0
 40
13.28372143960388
 40
19.56485780860667
 40
27.05038666949622
 40
37.96817867755294
 40
37.96817867755294
 40
37.96817867755294
 40
37.96817867755294
 10
319.0000015839014
 20
0.999976177929966
 30
0.0
 10
318.6973279053081
 20
5.417824313682808
 30
0.0
 10
318.2515366026969
 20
11.92462822319025
 30
0.0
 10
317.3934058303578
 20
20.90095497708357
 30
0.0
 10
316.501841093948
 20
29.0810452884026
 30
0.0
 10
315.7107021243398
 20
35.16444930666255
 30
0.0
 10
315.2413579890526
 20
38.77343598060633
 30
0.0
 11
319.0000015839014
 21
0.999976177929966
 31
0.0
 11
318.011366890214
 21
14.24685719677472
 31
0.0
 11
317.4190179021825
 21
20.50000014751458
 31
0.0
 11
316.6048904850431
 21
27.94112498693721
 31
0.0
 11
315.2413579890526
 21
38.77343598060633
 31
0.0
  0
LINE
  5
D8F
100
AcDbEntity
  8
VHH-025
100
AcDbLine
 10
319.000002
 20
0.999976
 30
0.0
 11
288.999998
 21
0.999976
 31
0.0
  0
LINE
  5
D90
100
AcDbEntity
  8
VHH-025
100
AcDbLine
 10
317.3
 20
0.0
 30
0.0
 11
290.7
 21
0.0
 31
0.0
  0
LINE
  5
D91
100
AcDbEntity
  8
VHH-025
100
AcDbLine
 10
340.395631
 20
59.500091
 30
0.0
 11
260.9
 21
59.424751
 31
0.0
  0
LINE
  5
D92
100
AcDbEntity
  8
VHH-025
100
AcDbLine
 10
260.958756
 20
57.5
 30
0.0
 11
339.8
 21
58.18855
 31
0.0
  0
LINE
  5
D93
100
AcDbEntity
  8
VHH-025
100
AcDbLine
 10
41.448462
 20
19.9
 30
0.0
 11
290.520316
 21
19.9
 31
0.0
  0
LWPOLYLINE
  5
D94
100
AcDbEntity
  8
VHH-025
100
AcDbPolyline
 90
        2
 70
     0
 43
0.0
 10
41.387795
 20
20.5
 10
290.580982
 20
20.5
  0
INSERT
  5
D95
100
AcDbEntity
  8
VHH-050
100
AcDbBlockReference
  2
A$C7A7B4A19
 10
5.677671
 20
21.322331
 30
0.0
 41
-1.0
  0
LINE
  5
D96
100
AcDbEntity
  8
VHH-025
100
AcDbLine
 10
-12.0
 20
47.5
 30
0.0
 11
-12.0
 21
30.5
 31
0.0
  0
LINE
  5
D97
100
AcDbEntity
  8
VHH-025
100
AcDbLine
 10
-7.2
 20
52.0
 30
0.0
 11
-7.2
 21
26.0
 31
0.0
  0
SPLINE
  5
D98
100
AcDbEntity
  8
VHH-025
100
AcDbSpline
210
0.0
220
0.0
230
1.0
 70
     8
 71
     3
 72
    11
 73
     7
 74
     5
 42
0.0000001
 43
0.0000001
 44
0.0000000001
 40
0.0
 40
0.0
 40
0.0
 40
0.0
 40
13.28372143960388
 40
19.56485780860667
 40
27.05038666949642
 40
37.96817867755314
 40
37.96817867755314
 40
37.96817867755314
 40
37.96817867755314
 10
42.96877892359771
 20
0.999976177929966
 30
0.0
 10
42.6661052450043
 20
5.417824313682794
 30
0.0
 10
42.2203139423929
 20
11.92462822319022
 30
0.0
 10
41.36218317005465
 20
20.90095497708369
 30
0.0
 10
40.47061843364157
 20
29.08104528840243
 30
0.0
 10
39.67947946403404
 20
35.16444930666251
 30
0.0
 10
39.21013532874713
 20
38.77343598060633
 30
0.0
 11
42.96877892359771
 21
0.999976177929966
 31
0.0
 11
41.98014422991036
 21
14.24685719677472
 31
0.0
 11
41.38779524187884
 21
20.50000014751458
 31
0.0
 11
40.57366782473764
 21
27.94112498693721
 31
0.0
 11
39.21013532874713
 21
38.77343598060633
 31
0.0
  0
SPLINE
  5
D99
100
AcDbEntity
  8
VHH-025
100
AcDbSpline
210
0.0
220
0.0
230
-1.0
 70
     8
 71
     3
 72
    11
 73
     7
 74
     5
 42
0.0000001
 43
0.0000001
 44
0.0000000001
 40
0.0
 40
0.0
 40
0.0
 40
0.0
 40
13.28372143960388
 40
19.56485780860684
 40
27.0503866694964
 40
37.96817867755311
 40
37.96817867755311
 40
37.96817867755311
 40
37.96817867755311
 10
12.9687757557931
 20
0.999976177929966
 30
0.0
 10
13.27144943438584
 20
5.417824313682861
 30
0.0
 10
13.71724073699626
 20
11.92462822319044
 30
0.0
 10
14.57537150933916
 20
20.90095497708345
 30
0.0
 10
15.46693624574801
 20
29.08104528840263
 30
0.0
 10
16.2580752153563
 20
35.16444930666256
 30
0.0
 10
16.72741935064368
 20
38.77343598060633
 30
0.0
 11
12.9687757557931
 21
0.999976177929966
 31
0.0
 11
13.95741044948044
 21
14.24685719677472
 31
0.0
 11
14.54975943751378
 21
20.50000014751458
 31
0.0
 11
15.36388685465317
 21
27.94112498693721
 31
0.0
 11
16.72741935064368
 21
38.77343598060633
 31
0.0
  0
INSERT
  5
D9A
100
AcDbEntity
  8
VHH-050
100
AcDbBlockReference
  2
A$C605007EB
 10
53.981465
 20
7.399998
 30
0.0
 41
-1.0
  0
LINE
  5
D9B
100
AcDbEntity
  8
VHH-025
100
AcDbLine
 10
41.268777
 20
1.0
 30
0.0
 11
41.268777
 21
0.0
 31
0.0
  0
INSERT
  5
D9C
100
AcDbEntity
  8
VHH-050
100
AcDbBlockReference
  2
A$C32063EEB
 10
-8.838839
 20
-8.838837
 30
0.0
  0
LINE
  5
D9D
100
AcDbEntity
  8
VHH-025
100
AcDbLine
 10
-7.2
 20
30.5
 30
0.0
 11
-12.0
 21
30.5
 31
0.0
  0
LINE
  5
D9E
100
AcDbEntity
  8
VHH-025
100
AcDbLine
 10
5.0
 20
20.5
 30
0.0
 11
5.0
 21
19.9
 31
0.0
  0
LINE
  5
D9F
100
AcDbEntity
  8
VHH-025
100
AcDbLine
 10
5.0
 20
19.9
 30
0.0
 11
14.489093
 21
19.9
 31
0.0
  0
LINE
  5
DA0
100
AcDbEntity
  8
VHH-025
100
AcDbLine
 10
14.668777
 20
1.0
 30
0.0
 11
14.668777
 21
0.0
 31
0.0
  0
LINE
  5
DA1
100
AcDbEntity
  8
VHH-025
100
AcDbLine
 10
0.0
 20
26.0
 30
0.0
 11
-7.2
 21
26.0
 31
0.0
  0
LINE
  5
DA2
100
AcDbEntity
  8
VHH-025
100
AcDbLine
 10
41.268777
 20
0.0
 30
0.0
 11
14.668777
 21
0.0
 31
0.0
  0
LINE
  5
DA3
100
AcDbEntity
  8
VHH-025
100
AcDbLine
 10
42.968779
 20
0.999976
 30
0.0
 11
12.968776
 21
0.999976
 31
0.0
  0
SPLINE
  5
DA4
100
AcDbEntity
  8
VHH-025
100
AcDbSpline
210
0.0
220
0.0
230
-1.0
 70
     8
 71
     3
 72
    12
 73
     8
 74
     6
 42
0.0000001
 43
0.0000001
 44
0.0000000001
 40
0.0
 40
0.0
 40
0.0
 40
0.0
 40
0.7759383456496045
 40
1.313673913555553
 40
1.814968045951308
 40
2.371579175916564
 40
2.926100784723715
 40
2.926100784723715
 40
2.926100784723715
 40
2.926100784723715
 10
39.21013532874713
 20
38.77343598060633
 30
0.0
 10
39.15871114405436
 20
39.02823095790022
 30
0.0
 10
39.07164931712507
 20
39.45960223482268
 30
0.0
 10
38.75866307252808
 20
39.99438635651779
 30
0.0
 10
38.30994704552511
 20
40.31079526506682
 30
0.0
 10
37.77762014250439
 20
40.42296048280289
 30
0.0
 10
37.41158747509262
 20
40.47435237564147
 30
0.0
 10
37.22891530953893
 20
40.49999999999999
 30
0.0
 11
39.21013532874713
 21
38.77343598060633
 31
0.0
 11
39.00720146221465
 21
39.52236732730216
 31
0.0
 11
38.72210940352124
 21
39.97830817769954
 31
0.0
 11
38.31388089399297
 21
40.26924681587388
 31
0.0
 11
37.77713028230391
 21
40.41660600578961
 31
0.0
 11
37.22891530953893
 21
40.49999999999999
 31
0.0
  0
LINE
  5
DA5
100
AcDbEntity
  8
VHH-025
100
AcDbLine
 10
-7.2
 20
39.0
 30
0.0
 11
-12.0
 21
39.0
 31
0.0
  0
SPLINE
  5
DA6
100
AcDbEntity
  8
VHH-025
100
AcDbSpline
210
0.0
220
0.0
230
-1.0
 70
     8
 71
     3
 72
    12
 73
     8
 74
     6
 42
0.0000001
 43
0.0000001
 44
0.0000000001
 40
0.0
 40
0.0
 40
0.0
 40
0.0
 40
0.7759383456496045
 40
1.313673913555553
 40
1.814968045951308
 40
2.371579175916564
 40
2.926100784723715
 40
2.926100784723715
 40
2.926100784723715
 40
2.926100784723715
 10
16.72741935064368
 20
38.77343598060633
 30
0.0
 10
16.77884353533644
 20
39.02823095790022
 30
0.0
 10
16.86590536226574
 20
39.45960223482268
 30
0.0
 10
17.17889160686274
 20
39.99438635651779
 30
0.0
 10
17.62760763386571
 20
40.31079526506682
 30
0.0
 10
18.15993453688642
 20
40.42296048280289
 30
0.0
 10
18.52596720429819
 20
40.47435237564147
 30
0.0
 10
18.70863936985188
 20
40.49999999999999
 30
0.0
 11
16.72741935064368
 21
38.77343598060633
 31
0.0
 11
16.93035321717616
 21
39.52236732730216
 31
0.0
 11
17.21544527586956
 21
39.97830817769954
 31
0.0
 11
17.62367378539784
 21
40.26924681587388
 31
0.0
 11
18.1604243970869
 21
40.41660600578961
 31
0.0
 11
18.70863936985188
 21
40.49999999999999
 31
0.0
  0
ARC
  5
DA7
100
AcDbEntity
  8
VHH-025
100
AcDbCircle
 10
27.475606
 20
-76.966469
 30
0.0
 40
117.793171
100
AcDbArc
 50
89.760116
 51
94.268287
  0
ARC
  5
DA8
100
AcDbEntity
  8
VHH-025
100
AcDbCircle
 10
28.461949
 20
-76.966469
 30
0.0
 40
117.793171
100
AcDbArc
 50
85.731713
 51
90.239884
  0
LINE
  5
DA9
100
AcDbEntity
  8
VHH-025
100
AcDbLine
 10
-7.2
 20
47.5
 30
0.0
 11
-12.0
 21
47.5
 31
0.0
  0
LINE
  5
DAA
100
AcDbEntity
  8
VHH-025
100
AcDbLine
 10
0.0
 20
52.0
 30
0.0
 11
-7.2
 21
52.0
 31
0.0
  0
SPLINE
  5
DAB
100
AcDbEntity
  8
VHH-025
100
AcDbSpline
210
0.0
220
0.0
230
-1.0
 70
     8
 71
     3
 72
    11
 73
     7
 74
     5
 42
0.0000001
 43
0.0000001
 44
0.0000000001
 40
0.0
 40
0.0
 40
0.0
 40
0.0
 40
13.28372143960388
 40
19.56485780860667
 40
27.05038666949622
 40
37.96817867755317
 40
37.96817867755317
 40
37.96817867755317
 40
37.96817867755317
 10
288.9999984160986
 20
0.999976177929966
 30
0.0
 10
289.3026720946918
 20
5.417824313682809
 30
0.0
 10
289.7484633973031
 20
11.92462822319025
 30
0.0
 10
290.6065941696422
 20
20.90095497708356
 30
0.0
 10
291.4981589060516
 20
29.08104528840272
 30
0.0
 10
292.2892978756611
 20
35.16444930666258
 30
0.0
 10
292.7586420109491
 20
38.77343598060633
 30
0.0
 11
288.9999984160986
 21
0.999976177929966
 31
0.0
 11
289.9886331097859
 21
14.24685719677472
 31
0.0
 11
290.5809820978174
 21
20.50000014751458
 31
0.0
 11
291.3951095149568
 21
27.94112498693721
 31
0.0
 11
292.7586420109491
 21
38.77343598060633
 31
0.0
  0
LINE
  5
DAC
100
AcDbEntity
  8
VHH-025
100
AcDbLine
 10
290.7
 20
1.0
 30
0.0
 11
290.7
 21
0.0
 31
0.0
  0
SPLINE
  5
DAD
100
AcDbEntity
  8
VHH-025
100
AcDbSpline
210
0.0
220
0.0
230
-1.0
 70
     8
 71
     3
 72
    15
 73
    11
 74
     9
 42
0.0000001
 43
0.0000001
 44
0.0000000001
 40
0.0
 40
0.0
 40
0.0
 40
0.0
 40
5.949972335373465
 40
11.27135610021526
 40
15.8497248074754
 40
19.55244050577548
 40
23.25582944081276
 40
28.8864023810811
 40
35.20654244556094
 40
38.36860966713398
 40
38.36860966713398
 40
38.36860966713398
 40
38.36860966713398
 10
260.8999999999996
 20
81.93125608066202
 30
0.0
 10
262.8788128535231
 20
81.78227347149098
 30
0.0
 10
266.6273856317773
 20
81.50004761462056
 30
0.0
 10
271.8452928555589
 20
80.65895989273929
 30
0.0
 10
276.3195189192797
 20
79.89956734366787
 30
0.0
 10
280.0456656506472
 20
78.20648745440727
 30
0.0
 10
282.7871980388914
 20
74.55547434554393
 30
0.0
 10
283.1075651280257
 20
69.19359155503406
 30
0.0
 10
283.5760420410563
 20
64.22174655719732
 30
0.0
 10
283.7156200735871
 20
61.06022663585537
 30
0.0
 10
283.7621656835072
 20
60.0059427321139
 30
0.0
 11
260.8999999999996
 21
81.93125608066202
 31
0.0
 11
266.8258728456094
 21
81.39627775458302
 31
0.0
 11
272.0890902474548
 21
80.61163276885144
 31
0.0
 11
276.5619499590575
 21
79.63439890741392
 31
0.0
 11
279.8591883014942
 21
77.94966662731622
 31
0.0
 11
282.1029940843564
 21
75.00341049232884
 31
0.0
 11
283.1213961842295
 21
69.46570259116106
 31
0.0
 11
283.605363478804
 21
63.16411976678864
 31
0.0
 11
283.7621656835072
 21
60.0059427321139
 31
0.0
  0
SPLINE
  5
DAE
100
AcDbEntity
  8
VHH-025
100
AcDbSpline
210
0.0
220
0.0
230
-1.0
 70
     8
 71
     3
 72
    16
 73
    12
 74
    10
 42
0.0000001
 43
0.0000001
 44
0.0000000001
 40
0.0
 40
0.0
 40
0.0
 40
0.0
 40
6.716658977454626
 40
10.07885011730476
 40
15.40452524830299
 40
19.36348536797614
 40
22.33769485412761
 40
27.28503787636932
 40
34.34624314919278
 40
39.79793946521814
 40
46.11750119367497
 40
46.11750119367497
 40
46.11750119367497
 40
46.11750119367497
 10
289.0482840304139
 20
59.99972846093715
 30
0.0
 10
288.9742490476966
 20
62.23966633882951
 30
0.0
 10
288.8631540082211
 20
65.60086097728447
 30
0.0
 10
288.1739616855448
 20
70.69158135679685
 30
0.0
 10
287.5304934520002
 20
74.86109061364405
 30
0.0
 10
285.9582203798108
 20
78.72326160063886
 30
0.0
 10
283.2281159595663
 20
81.65061595844056
 30
0.0
 10
278.9369740538054
 20
84.39786793699516
 30
0.0
 10
273.1089665650368
 20
85.38969905304316
 30
0.0
 10
266.9195454694821
 20
86.32078954453143
 30
0.0
 10
263.0027730997876
 20
86.61942008927635
 30
0.0
 10
260.8999999999996
 20
86.77974400320181
 30
0.0
 11
289.0482840304139
 21
59.99972846093715
 31
0.0
 11
288.6752598188268
 21
66.70602108480853
 31
0.0
 11
288.2538177544592
 21
70.04169430730326
 31
0.0
 11
287.2245848810616
 21
75.26696896929479
 31
0.0
 11
285.6023736836523
 21
78.87831166421619
 31
0.0
 11
283.6183216761273
 21
81.09404172425275
 31
0.0
 11
279.4458201486941
 21
83.75231823042941
 31
0.0
 11
272.592175712527
 21
85.45178221873447
 31
0.0
 11
267.1944656194336
 21
86.21710468219863
 31
0.0
 11
260.8999999999996
 21
86.77974400320181
 31
0.0
  0
ARC
  5
DAF
100
AcDbEntity
  8
VHH-025
100
AcDbCircle
 10
304.493171
 20
-76.966469
 30
0.0
 40
117.793171
100
AcDbArc
 50
85.731713
 51
90.239884
  0
ARC
  5
DB0
100
AcDbEntity
  8
VHH-025
100
AcDbCircle
 10
303.506829
 20
-76.966469
 30
0.0
 40
117.793171
100
AcDbArc
 50
89.760116
 51
94.268287
  0
SPLINE
  5
DB1
100
AcDbEntity
  8
VHH-025
100
AcDbSpline
210
0.0
220
0.0
230
-1.0
 70
     8
 71
     3
 72
    12
 73
     8
 74
     6
 42
0.0000001
 43
0.0000001
 44
0.0000000001
 40
0.0
 40
0.0
 40
0.0
 40
0.0
 40
0.7759383456496045
 40
1.313673913555553
 40
1.814968045951308
 40
2.371579175916564
 40
2.926100784723715
 40
2.926100784723715
 40
2.926100784723715
 40
2.926100784723715
 10
315.2413579890526
 20
38.77343598060633
 30
0.0
 10
315.1899338043598
 20
39.02823095790022
 30
0.0
 10
315.1028719774306
 20
39.45960223482268
 30
0.0
 10
314.7898857328336
 20
39.99438635651779
 30
0.0
 10
314.3411697058305
 20
40.31079526506682
 30
0.0
 10
313.8088428028099
 20
40.42296048280289
 30
0.0
 10
313.442810135398
 20
40.47435237564147
 30
0.0
 10
313.2601379698444
 20
40.49999999999999
 30
0.0
 11
315.2413579890526
 21
38.77343598060633
 31
0.0
 11
315.0384241225201
 21
39.52236732730216
 31
0.0
 11
314.7533320638267
 21
39.97830817769954
 31
0.0
 11
314.3451035542984
 21
40.26924681587388
 31
0.0
 11
313.8083529426094
 21
40.41660600578961
 31
0.0
 11
313.2601379698444
 21
40.49999999999999
 31
0.0
  0
SPLINE
  5
DB2
100
AcDbEntity
  8
VHH-025
100
AcDbSpline
210
0.0
220
0.0
230
-1.0
 70
     8
 71
     3
 72
    12
 73
     8
 74
     6
 42
0.0000001
 43
0.0000001
 44
0.0000000001
 40
0.0
 40
0.0
 40
0.0
 40
0.0
 40
0.7759383456496045
 40
1.313673913555553
 40
1.814968045951308
 40
2.371579175916564
 40
2.926100784725513
 40
2.926100784725513
 40
2.926100784725513
 40
2.926100784725513
 10
292.7586420109473
 20
38.77343598060633
 30
0.0
 10
292.81006619564
 20
39.02823095790022
 30
0.0
 10
292.8971280225693
 20
39.45960223482268
 30
0.0
 10
293.2101142671665
 20
39.99438635651781
 30
0.0
 10
293.6588302941693
 20
40.31079526506679
 30
0.0
 10
294.1911571971906
 20
40.42296048280308
 30
0.0
 10
294.5571898646031
 20
40.4743523756415
 30
0.0
 10
294.7398620301573
 20
40.49999999999999
 30
0.0
 11
292.7586420109473
 21
38.77343598060633
 31
0.0
 11
292.9615758774798
 21
39.52236732730216
 31
0.0
 11
293.2466679361732
 21
39.97830817769954
 31
0.0
 11
293.6548964457015
 21
40.26924681587388
 31
0.0
 11
294.1916470573906
 21
40.41660600578961
 31
0.0
 11
294.7398620301573
 21
40.49999999999999
 31
0.0
  0
LINE
  5
DB3
100
AcDbEntity
  8
VHH-025
100
AcDbLine
 10
260.900015
 20
58.5
 30
0.0
 11
260.958756
 21
57.5
 31
0.0
  0
LWPOLYLINE
  5
DB4
100
AcDbEntity
  8
VHH-025
100
AcDbPolyline
 90
        4
 70
     0
 43
0.0
 10
491.511899
 20
0.0
 10
479.109524
 20
54.935396
 42
0.350577
 10
477.155515
 20
56.508727
 10
332.314243
 20
56.508727
  0
LWPOLYLINE
  5
DB5
100
AcDbEntity
  8
VHH-025
100
AcDbPolyline
 90
        5
 70
     0
 43
0.0
 10
332.268788
 20
57.5
 10
493.375856
 20
57.499948
 42
-0.352487
 10
497.283553
 20
54.354286
 10
503.656469
 20
25.2049
 10
509.167005
 20
0.0
  0
LINE
  5
DB6
100
AcDbEntity
  8
VHH-025
100
AcDbLine
 10
460.27926
 20
0.0
 30
0.0
 11
509.167005
 21
0.0
 31
0.0
  0
LINE
  5
DB7
100
AcDbEntity
  8
VHH-025
100
AcDbLine
 10
491.511899
 20
0.0
 30
0.0
 11
460.27926
 21
0.0
 31
0.0
  0
LINE
  5
DB8
100
AcDbEntity
  8
VHH-025
100
AcDbLine
 10
332.0
 20
20.5
 30
0.0
 11
332.268788
 21
57.5
 31
0.0
  0
LWPOLYLINE
  5
DB9
100
AcDbEntity
  8
VHH-025
100
AcDbPolyline
 90
        4
 70
     0
 43
0.0
 10
332.0
 20
20.5
 10
451.468038
 20
20.5
 42
-0.354119
 10
456.84785
 20
16.143514
 10
460.27926
 20
0.0
  0
LINE
  5
DBA
100
AcDbEntity
  8
VHH-025
100
AcDbLine
 10
356.926771
 20
4.5
 30
0.0
 11
454.703155
 21
4.5
 31
0.0
  0
LINE
  5
DBB
100
AcDbEntity
  8
VHH-025
100
AcDbLine
 10
457.390644
 20
13.58987
 30
0.0
 11
356.926771
 21
13.58987
 31
0.0
  0
LINE
  5
DBC
100
AcDbEntity
  8
VHH-025
100
AcDbLine
 10
317.479684
 20
19.9
 30
0.0
 11
327.0
 21
19.9
 31
0.0
  0
LINE
  5
DBD
100
AcDbEntity
  8
VHH-025
100
AcDbLine
 10
327.0
 20
20.5
 30
0.0
 11
327.0
 21
19.9
 31
0.0
  0
LINE
  5
DBE
100
AcDbEntity
  8
VHH-025
100
AcDbLine
 10
317.3
 20
1.0
 30
0.0
 11
317.3
 21
0.0
 31
0.0
  0
LINE
  5
DBF
100
AcDbEntity
  8
VHH-025
100
AcDbLine
 10
375.27926
 20
0.0
 30
0.0
 11
375.436403
 21
4.5
 31
0.0
  0
ARC
  5
DC0
100
AcDbEntity
  8
VHH-025
100
AcDbCircle
 10
356.926771
 20
15.5
 30
0.0
 40
11.0
100
AcDbArc
 50
190.0
 51
270.0
  0
LINE
  5
DC1
100
AcDbEntity
  8
VHH-025
100
AcDbLine
 10
359.27926
 20
0.0
 30
0.0
 11
359.122116
 21
4.5
 31
0.0
  0
LWPOLYLINE
  5
DC2
100
AcDbEntity
  8
VHH-025
100
AcDbPolyline
 90
        2
 70
     0
 43
0.0
 10
346.093886
 20
13.58987
 10
344.875443
 20
20.5
  0
LWPOLYLINE
  5
DC3
100
AcDbEntity
  8
VHH-025
100
AcDbPolyline
 90
        2
 70
     0
 43
0.0
 10
356.926771
 20
13.58987
 10
355.708329
 20
20.5
  0
LINE
  5
DC4
100
AcDbEntity
  8
VHH-025
100
AcDbLine
 10
375.27926
 20
0.0
 30
0.0
 11
359.27926
 21
0.0
 31
0.0
  0
LINE
  5
DC5
100
AcDbEntity
  8
VHH-025
100
AcDbLine
 10
454.703155
 20
4.5
 30
0.0
 11
458.639541
 21
4.5
 31
0.0
  0
LWPOLYLINE
  5
DC6
100
AcDbEntity
  8
VHH-025
100
AcDbPolyline
 90
        2
 70
     0
 43
0.0
 10
459.31797
 20
4.522512
 10
458.639541
 20
4.5
  0
LINE
  5
DC7
100
AcDbEntity
  8
VHH-025
100
AcDbLine
 10
368.802843
 20
88.5
 30
0.0
 11
348.753924
 21
88.5
 31
0.0
  0
ARC
  5
DC8
100
AcDbEntity
  8
VHH-025
100
AcDbCircle
 10
368.802843
 20
87.5
 30
0.0
 40
1.0
100
AcDbArc
 50
0.0
 51
90.0
  0
ARC
  5
DC9
100
AcDbEntity
  8
VHH-025
100
AcDbCircle
 10
368.802843
 20
67.5
 30
0.0
 40
1.0
100
AcDbArc
 50
270.0
 51
0.0
  0
LINE
  5
DCA
100
AcDbEntity
  8
VHH-025
100
AcDbLine
 10
363.802843
 20
66.5
 30
0.0
 11
368.802843
 21
66.5
 31
0.0
  0
LINE
  5
DCB
100
AcDbEntity
  8
VHH-025
100
AcDbLine
 10
339.8
 20
59.0
 30
0.0
 11
339.8
 21
58.18855
 31
0.0
  0
LINE
  5
DCC
100
AcDbEntity
  8
VHH-025
100
AcDbLine
 10
341.466984
 20
66.5
 30
0.0
 11
351.802843
 21
66.5
 31
0.0
  0
LINE
  5
DCD
100
AcDbEntity
  8
VHH-025
100
AcDbLine
 10
369.802843
 20
67.5
 30
0.0
 11
369.802843
 21
87.5
 31
0.0
  0
ELLIPSE
  5
DCE
100
AcDbEntity
  8
VHH-025
100
AcDbEllipse
 10
357.802843
 20
66.5
 30
0.0
 11
6.0
 21
0.0
 31
0.0
210
0.0
220
0.0
230
-1.0
 40
0.195141
 41
3.141592653589793
 42
6.283185307179587
  0
SPLINE
  5
DCF
100
AcDbEntity
  8
VHH-025
100
AcDbSpline
210
0.0
220
0.0
230
-1.0
 70
     8
 71
     3
 72
     9
 73
     5
 74
     3
 42
0.0000001
 43
0.0000001
 44
0.0000000001
 40
0.0
 40
0.0
 40
0.0
 40
0.0
 40
0.5326241433832024
 40
0.8945290063674951
 40
0.8945290063674951
 40
0.8945290063674951
 40
0.8945290063674951
 10
340.389394530097
 20
59.50000014751367
 30
0.0
 10
340.1791665144941
 20
59.48828811456135
 30
0.0
 10
339.8260937891134
 20
59.46861804641006
 30
0.0
 10
339.8075160893105
 20
59.13498146298839
 30
0.0
 10
339.800000000001
 20
59.00000014751367
 30
0.0
 11
340.389394530097
 21
59.50000014751367
 31
0.0
 11
339.8772989641056
 21
59.35355353810701
 31
0.0
 11
339.800000000001
 21
59.00000014751367
 31
0.0
  0
SPLINE
  5
DD0
100
AcDbEntity
  8
VHH-025
100
AcDbSpline
210
0.0
220
0.0
230
1.0
 70
     8
 71
     3
 72
     9
 73
     5
 74
     3
 42
0.0000001
 43
0.0000001
 44
0.0000000001
 40
0.0
 40
0.0
 40
0.0
 40
0.0
 40
0.4063836000616385
 40
0.8021841324719616
 40
0.8021841324719616
 40
0.8021841324719616
 40
0.8021841324719616
 10
340.888943053409
 20
59.97890328193989
 30
0.0
 10
340.8766359385379
 20
59.82300556113278
 30
0.0
 10
340.8523422114667
 20
59.51527001791443
 30
0.0
 10
340.5450223683329
 20
59.50505595018235
 30
0.0
 10
340.3933896538365
 20
59.50001629247435
 30
0.0
 11
340.888943053409
 21
59.97890328193989
 31
0.0
 11
340.7793859088433
 21
59.58756600736251
 31
0.0
 11
340.3933896538365
 21
59.50001629247435
 31
0.0
  0
LINE
  5
DD1
100
AcDbEntity
  8
VHH-025
100
AcDbLine
 10
425.43019
 20
141.678662
 30
0.0
 11
420.599005
 21
145.732507
 31
0.0
  0
ARC
  5
DD2
100
AcDbEntity
  8
VHH-025
100
AcDbCircle
 10
418.816891
 20
141.399977
 30
0.0
 40
0.5
100
AcDbArc
 50
205.0
 51
290.000001
  0
LINE
  5
DD3
100
AcDbEntity
  8
VHH-025
100
AcDbLine
 10
418.987901
 20
140.93013
 30
0.0
 11
424.137627
 21
142.804477
 31
0.0
  0
LWPOLYLINE
  5
DD4
100
AcDbEntity
  8
VHH-025
100
AcDbPolyline
 90
        3
 70
     0
 43
0.0
 10
424.291199
 20
142.634389
 10
424.246868
 20
142.68469
 10
424.13549
 20
142.806763
  0
LINE
  5
DD5
100
AcDbEntity
  8
VHH-025
100
AcDbLine
 10
428.986456
 20
144.570941
 30
0.0
 11
434.101453
 21
146.43114
 31
0.0
  0
ARC
  5
DD6
100
AcDbEntity
  8
VHH-025
100
AcDbCircle
 10
426.715765
 20
143.210751
 30
0.0
 40
2.0
100
AcDbArc
 50
230.0
 51
350.0
  0
LWPOLYLINE
  5
DD7
100
AcDbEntity
  8
VHH-025
100
AcDbPolyline
 90
        3
 70
     0
 43
0.0
 10
428.952048
 20
144.559847
 10
428.945195
 20
144.394741
 10
428.943569
 20
144.327713
  0
ARC
  5
DE8
100
AcDbEntity
  8
VHH-025
100
AcDbCircle
 10
376.959198
 20
-48.472081
 30
0.0
 40
498.102065
100
AcDbArc
 50
95.227028
 51
98.061345
  0
ARC
  5
DE9
100
AcDbEntity
  8
VHH-025
100
AcDbCircle
 10
737.0708
 20
-3480.081109
 30
0.0
 40
3948.025825
100
AcDbArc
 50
95.916275
 51
96.252373
  0
ARC
  5
DEA
100
AcDbEntity
  8
VHH-025
100
AcDbCircle
 10
363.345308
 20
-72.906829
 30
0.0
 40
516.978761
100
AcDbArc
 50
94.581513
 51
106.918695
  0
LINE
  5
DEB
100
AcDbEntity
  8
VHH-025
100
AcDbLine
 10
260.900015
 20
358.2
 30
0.0
 11
362.148958
 21
358.2
 31
0.0
  0
LINE
  5
DEC
100
AcDbEntity
  8
VHH-025
100
AcDbLine
 10
260.900015
 20
359.19641
 30
0.0
 11
362.206482
 21
359.196413
 31
0.0
  0
SPLINE
  5
DED
100
AcDbEntity
  8
VHH-025
100
AcDbSpline
210
0.0
220
0.0
230
-1.0
 70
     8
 71
     3
 72
    15
 73
    11
 74
     9
 42
0.0000001
 43
0.0000001
 44
0.0000000001
 40
0.0
 40
0.0
 40
0.0
 40
0.0
 40
7.66925373709889
 40
15.45437869041519
 40
20.86081248323802
 40
24.06382690725214
 40
29.36972090551082
 40
33.62696527834327
 40
36.74194354924445
 40
38.79269265411771
 40
38.79269265411771
 40
38.79269265411771
 40
38.79269265411771
 10
260.79497503339
 20
378.0817676217093
 30
0.0
 10
263.3475935292147
 20
377.8922915377723
 30
0.0
 10
268.4913968559718
 20
377.510476663168
 30
0.0
 10
275.3160737734329
 20
376.2132897644486
 30
0.0
 10
280.6542380220555
 20
374.8124199580745
 30
0.0
 10
284.6185791062453
 20
372.3014708430312
 30
0.0
 10
287.2896064598621
 20
368.827141128217
 30
0.0
 10
288.6222683878017
 20
364.7457151592245
 30
0.0
 10
288.774449626231
 20
361.5978098963571
 30
0.0
 10
288.8583040099372
 20
359.8788303022507
 30
0.0
 10
288.8915934752567
 20
359.1964102658312
 30
0.0
 11
260.79497503339
 21
378.0817676217093
 31
0.0
 11
268.4311943164066
 21
377.3707064810951
 31
0.0
 11
276.0871601314993
 21
375.9584890839214
 31
0.0
 11
281.2334519764062
 21
374.301622582594
 31
0.0
 11
283.928262393907
 21
372.5703518890941
 31
0.0
 11
287.2025213169072
 21
368.395218403095
 31
0.0
 11
288.5236229133224
 21
364.3481428883605
 31
0.0
 11
288.7917924939975
 21
361.2447294927287
 31
0.0
 11
288.8915934752567
 21
359.1964102658312
 31
0.0
  0
SPLINE
  5
DEE
100
AcDbEntity
  8
VHH-025
100
AcDbSpline
210
0.0
220
0.0
230
-1.0
 70
     8
 71
     3
 72
    16
 73
    12
 74
    10
 42
0.0000001
 43
0.0000001
 44
0.0000000001
 40
0.0
 40
0.0
 40
0.0
 40
0.0
 40
5.497923559404869
 40
11.7538166166448
 40
15.98342477697862
 40
18.30450869996907
 40
21.45476475459099
 40
23.94926090769236
 40
27.59481708481427
 40
29.44434721605028
 40
31.2938773472863
 40
31.2938773472863
 40
31.2938773472863
 40
31.2938773472863
 10
260.7949751171836
 20
373.4571025894702
 30
0.0
 10
262.6274377961013
 20
373.3725298392873
 30
0.0
 10
266.5449950433278
 20
373.1917247433863
 30
0.0
 10
271.8015422133428
 20
372.2740756659834
 30
0.0
 10
276.0003003105284
 20
371.4922003126202
 30
0.0
 10
279.0733527909336
 20
370.4144393084492
 30
0.0
 10
281.2105548996227
 20
368.7312584408301
 30
0.0
 10
282.990999599346
 20
366.154491370469
 30
0.0
 10
283.6454863524885
 20
363.4915233000863
 30
0.0
 10
283.6436312924855
 20
361.0449122302782
 30
0.0
 10
283.6938489409258
 20
359.8125776321808
 30
0.0
 10
283.7189577651461
 20
359.196410333132
 30
0.0
 11
260.7949751171836
 21
373.4571025894702
 31
0.0
 11
266.2809809381851
 21
373.0952965682427
 31
0.0
 11
272.4641458424593
 21
372.1441553010409
 31
0.0
 11
276.5957668544524
 21
371.2390072450744
 31
0.0
 11
278.7629498125024
 21
370.4078943743388
 31
0.0
 11
281.2517321779632
 21
368.4765540244643
 31
0.0
 11
282.6592027893839
 21
366.4170546834047
 31
0.0
 11
283.5938807874827
 21
362.8933553658662
 31
0.0
 11
283.6564192763144
 21
361.0448828494991
 31
0.0
 11
283.7189577651461
 21
359.196410333132
 31
0.0
  0
SPLINE
  5
DEF
100
AcDbEntity
  8
VHH-025
100
AcDbSpline
210
0.0
220
0.0
230
1.0
 70
     8
 71
     3
 72
    14
 73
    10
 74
     8
 42
0.0000001
 43
0.0000001
 44
0.0000000001
 40
0.0
 40
0.0
 40
0.0
 40
0.0
 40
3.116915673786193
 40
5.817138702518656
 40
9.858090098074752
 40
13.8943412033543
 40
22.2705204283318
 40
27.50924725039745
 40
30.65402453277116
 40
30.65402453277116
 40
30.65402453277116
 40
30.65402453277116
 10
283.7883525901034
 20
357.6929672314272
 30
0.0
 10
283.8038413107166
 20
356.6530239619605
 30
0.0
 10
283.8327481037012
 20
354.7121648324962
 30
0.0
 10
283.271562045398
 20
351.4433303520841
 30
0.0
 10
281.1891655266015
 20
348.2798611396658
 30
0.0
 10
276.1384114687613
 20
345.8004441074291
 30
0.0
 10
270.2691456297615
 20
345.0203199949068
 30
0.0
 10
264.7369860888708
 20
344.2716598874304
 30
0.0
 10
261.946683914123
 20
344.098023804937
 30
0.0
 10
260.8999999999996
 20
344.0328903236595
 30
0.0
 11
283.7883525901034
 21
357.6929672314272
 31
0.0
 11
283.7314471785484
 21
354.5765710609075
 31
0.0
 11
283.2004726228533
 21
351.929068383647
 31
0.0
 11
280.9582838748701
 21
348.5672418266003
 31
0.0
 11
277.4371324501389
 21
346.5942198731027
 31
0.0
 11
269.2384048007316
 21
344.8792145262341
 31
0.0
 11
264.0368134884029
 21
344.256553674938
 31
0.0
 11
260.8999999999996
 21
344.0328903236595
 31
0.0
  0
SPLINE
  5
DF0
100
AcDbEntity
  8
VHH-025
100
AcDbSpline
210
0.0
220
0.0
230
1.0
 70
     8
 71
     3
 72
    15
 73
    11
 74
     9
 42
0.0000001
 43
0.0000001
 44
0.0000000001
 40
0.0
 40
0.0
 40
0.0
 40
0.0
 40
4.439140532731176
 40
8.762030339452316
 40
13.06901262781278
 40
18.41765908871391
 40
25.00007356990209
 40
29.45382229860587
 40
33.9005291522209
 40
38.35401429887019
 40
38.35401429887019
 40
38.35401429887019
 40
38.35401429887019
 10
289.0066133744858
 20
357.700980193882
 30
0.0
 10
288.9890253855223
 20
356.216715884041
 30
0.0
 10
288.9543099959618
 20
353.287056681161
 30
0.0
 10
287.6949199032753
 20
349.041136261669
 30
0.0
 10
284.9558923241997
 20
345.1508876452579
 30
0.0
 10
280.1915697122734
 20
342.258555342964
 30
0.0
 10
274.8022749181418
 20
341.189921306141
 30
0.0
 10
269.7716325680104
 20
340.0474085995658
 30
0.0
 10
265.340755202466
 20
339.5421897065579
 30
0.0
 10
262.3810031062235
 20
339.3468817323425
 30
0.0
 10
260.8999999999996
 20
339.2491533729808
 30
0.0
 11
289.0066133744858
 21
357.700980193882
 31
0.0
 11
288.7460343190632
 21
353.269494300278
 31
0.0
 11
287.4777516236154
 21
349.1368395499412
 31
0.0
 11
284.9727655491715
 21
345.6332497909806
 31
0.0
 11
280.4684058104194
 21
342.7490233249036
 31
0.0
 11
274.1178317360754
 21
341.0174375405931
 31
0.0
 11
269.7539974258889
 21
340.1270287290526
 31
0.0
 11
265.3413463276865
 21
339.5777454437429
 31
0.0
 11
260.8999999999996
 21
339.2491533729808
 31
0.0
  0
ARC
  5
DF1
100
AcDbEntity
  8
VHH-025
100
AcDbCircle
 10
15.165356
 20
433.7
 30
0.0
 40
3.0
100
AcDbArc
 50
7.018512
 51
172.981488
  0
LINE
  5
DF2
100
AcDbEntity
  8
VHH-025
100
AcDbLine
 10
11.252718
 20
421.7
 30
0.0
 11
12.187836
 21
429.566079
 31
0.0
  0
LINE
  5
DF3
100
AcDbEntity
  8
VHH-025
100
AcDbLine
 10
18.142877
 20
429.566079
 30
0.0
 11
19.077995
 21
421.7
 31
0.0
  0
LINE
  5
DF4
100
AcDbEntity
  8
VHH-025
100
AcDbLine
 10
19.665356
 20
421.7
 30
0.0
 11
18.142877
 21
434.06657
 31
0.0
  0
LINE
  5
DF5
100
AcDbEntity
  8
VHH-025
100
AcDbLine
 10
10.665356
 20
421.7
 30
0.0
 11
12.187836
 21
434.06657
 31
0.0
  0
SPLINE
  5
DF6
100
AcDbEntity
  8
VHH-025
100
AcDbSpline
210
0.0
220
0.0
230
-1.0
 70
     8
 71
     3
 72
    16
 73
    12
 74
    10
 42
0.0000001
 43
0.0000001
 44
0.0000000001
 40
0.0
 40
0.0
 40
0.0
 40
0.0
 40
1.162224389485535
 40
2.355902817985682
 40
3.515791744985435
 40
4.373377683802992
 40
5.515721028602947
 40
6.396471174835826
 40
7.295099172860732
 40
7.900392698522352
 40
8.766036361285042
 40
8.766036361285042
 40
8.766036361285042
 40
8.766036361285042
 10
18.14287651304766
 20
429.5660786931403
 30
0.0
 10
18.0498446263375
 20
429.9460297604166
 30
0.0
 10
17.86126307010291
 20
430.7162147592785
 30
0.0
 10
17.08765661278433
 20
431.6535351464769
 30
0.0
 10
16.12365295935134
 20
432.1699890903742
 30
0.0
 10
15.0728475235655
 20
432.3533780705179
 30
0.0
 10
14.09773097775687
 20
432.1591604822841
 30
0.0
 10
13.27219771974772
 20
431.6214792795404
 30
0.0
 10
12.71752255936484
 20
431.0389829799994
 30
0.0
 10
12.34089522480399
 20
430.3342862602873
 30
0.0
 10
12.24454064617746
 20
429.8506800206951
 30
0.0
 10
12.18783616482869
 20
429.5660786931403
 30
0.0
 11
18.14287651304766
 21
429.5660786931403
 31
0.0
 11
17.78351637547712
 21
430.6713505253338
 31
0.0
 11
17.0316878074791
 21
431.5985085458505
 31
0.0
 11
16.01132926494938
 21
432.1500615964842
 31
0.0
 11
15.16535633893363
 21
432.2907152523412
 31
0.0
 11
14.04527158130076
 21
432.0663083604522
 31
0.0
 11
13.29902487038816
 21
431.5985085458505
 31
0.0
 11
12.68884287269793
 21
430.9388039085097
 31
0.0
 11
12.40554973208418
 21
430.4038971421578
 31
0.0
 11
12.18783616482869
 21
429.5660786931403
 31
0.0
  0
ARC
  5
DF7
100
AcDbEntity
  8
VHH-025
100
AcDbCircle
 10
370.843007
 20
-16.6285
 30
0.0
 40
465.913779
100
AcDbArc
 50
97.861411
 51
109.816114
  0
LINE
  5
DF8
100
AcDbEntity
  8
VHH-025
100
AcDbLine
 10
307.11653
 20
444.906532
 30
0.0
 11
307.098997
 21
444.461178
 31
0.0
  0
SPLINE
  5
DFB
100
AcDbEntity
  8
VHH-025
100
AcDbSpline
210
0.0
220
0.0
230
1.0
 70
     8
 71
     3
 72
    12
 73
     8
 74
     6
 42
0.0000001
 43
0.0000001
 44
0.0000000001
 40
0.0
 40
0.0
 40
0.0
 40
0.0
 40
21.22594818207389
 40
37.44771297309462
 40
64.35211818946618
 40
75.09390495282734
 40
86.13925381656407
 40
86.13925381656407
 40
86.13925381656407
 40
86.13925381656407
 10
349.5991713694475
 20
359.196410308371
 30
0.0
 10
348.0522391084757
 20
366.1018213185947
 30
0.0
 10
345.3230759728277
 20
378.2846386539584
 30
0.0
 10
339.7443748218207
 20
398.9968916756174
 30
0.0
 10
334.7208569749834
 20
416.2561185667044
 30
0.0
 10
328.9994162414867
 20
431.4483996830928
 30
0.0
 10
326.4612217371416
 20
438.2524639436662
 30
0.0
 10
325.1744420399682
 20
441.7018968905031
 30
0.0
 11
349.5991713694475
 21
359.196410308371
 31
0.0
 11
344.7922123232401
 21
379.8708878339621
 31
0.0
 11
340.6303920576811
 21
395.5496921573912
 31
0.0
 11
332.7473686933535
 21
421.2733187035101
 31
0.0
 11
329.0404037396292
 21
431.3552031355684
 31
0.0
 11
325.1744420399682
 21
441.7018968905031
 31
0.0
  0
SPLINE
  5
DFC
100
AcDbEntity
  8
VHH-025
100
AcDbSpline
210
0.0
220
0.0
230
1.0
 70
     8
 71
     3
 72
    11
 73
     7
 74
     5
 42
0.0000001
 43
0.0000001
 44
0.0000000001
 40
0.0
 40
0.0
 40
0.0
 40
0.0
 40
12.81919231105582
 40
61.68837483382378
 40
89.87529633437578
 40
92.55604209165261
 40
92.55604209165261
 40
92.55604209165261
 40
92.55604209165261
 10
362.206482283349
 20
359.1964126084876
 30
0.0
 10
361.2020194634823
 20
363.3507110646063
 30
0.0
 10
356.3683546400641
 20
383.3419799460005
 30
0.0
 10
346.945047675248
 20
411.7865089325938
 30
0.0
 10
338.1532921209623
 20
436.9480545391975
 30
0.0
 10
333.5992270660063
 20
446.1761006817147
 30
0.0
 10
333.2037229136367
 20
446.9775232621087
 30
0.0
 11
362.206482283349
 21
359.1964126084876
 31
0.0
 11
359.1225203920985
 21
371.6391161154088
 31
0.0
 11
344.6088386225255
 21
418.303342691397
 31
0.0
 11
334.3815571472805
 21
444.5693903062247
 31
0.0
 11
333.2037229136367
 21
446.9775232621087
 31
0.0
  0
ARC
  5
DFE
100
AcDbEntity
  8
VHH-025
100
AcDbCircle
 10
438.47232
 20
257.1001
 30
0.0
 40
45.0
100
AcDbArc
 50
180.0
 51
200.0
  0
ARC
  5
DFF
100
AcDbEntity
  8
VHH-025
100
AcDbCircle
 10
438.47232
 20
257.1001
 30
0.0
 40
55.0
100
AcDbArc
 50
180.0
 51
200.0
  0
LINE
  5
E00
100
AcDbEntity
  8
VHH-025
100
AcDbLine
 10
396.186152
 20
241.709194
 30
0.0
 11
420.499185
 21
174.909686
 31
0.0
  0
LINE
  5
E01
100
AcDbEntity
  8
VHH-025
100
AcDbLine
 10
386.789226
 20
238.288992
 30
0.0
 11
411.102259
 21
171.489482
 31
0.0
  0
LINE
  5
E02
100
AcDbEntity
  8
VHH-025
100
AcDbLine
 10
423.444125
 20
176.258455
 30
0.0
 11
425.728835
 21
172.301222
 31
0.0
  0
LINE
  5
E03
100
AcDbEntity
  8
VHH-025
100
AcDbLine
 10
420.127562
 20
175.93071
 30
0.0
 11
422.236079
 21
176.698148
 31
0.0
  0
LINE
  5
E04
100
AcDbEntity
  8
VHH-025
100
AcDbLine
 10
408.622119
 20
171.743072
 30
0.0
 11
410.730637
 21
172.510506
 31
0.0
  0
ARC
  5
E05
100
AcDbEntity
  8
VHH-025
100
AcDbCircle
 10
412.461015
 20
170.021905
 30
0.0
 40
2.0
100
AcDbArc
 50
110.000016
 51
200.0
  0
ARC
  5
E06
100
AcDbEntity
  8
VHH-025
100
AcDbCircle
 10
420.401659
 20
172.912065
 30
0.0
 40
2.0
100
AcDbArc
 50
20.0
 51
110.000016
  0
LINE
  5
E07
100
AcDbEntity
  8
VHH-025
100
AcDbLine
 10
419.717618
 20
174.79145
 30
0.0
 11
411.776974
 21
171.90129
 31
0.0
  0
ARC
  5
E08
100
AcDbEntity
  8
VHH-025
100
AcDbCircle
 10
422.5781
 20
175.758455
 30
0.0
 40
1.0
100
AcDbArc
 50
30.0
 51
110.0
  0
LINE
  5
E09
100
AcDbEntity
  8
VHH-025
100
AcDbLine
 10
420.127562
 20
175.93071
 30
0.0
 11
422.236079
 21
176.698148
 31
0.0
  0
LINE
  5
E0A
100
AcDbEntity
  8
VHH-025
100
AcDbLine
 10
408.622119
 20
171.743072
 30
0.0
 11
410.730636
 21
172.510509
 31
0.0
  0
ARC
  5
E0B
100
AcDbEntity
  8
VHH-025
100
AcDbCircle
 10
408.964139
 20
170.803379
 30
0.0
 40
1.0
100
AcDbArc
 50
110.0
 51
190.0
  0
ARC
  5
E0C
100
AcDbEntity
  8
VHH-025
100
AcDbCircle
 10
412.738454
 20
164.801222
 30
0.0
 40
15.0
100
AcDbArc
 50
20.0
 51
30.0
  0
ARC
  5
E0D
100
AcDbEntity
  8
VHH-025
100
AcDbCircle
 10
419.932444
 20
150.810787
 30
0.0
 40
10.0
100
AcDbArc
 50
350.0
 51
20.0
  0
LINE
  5
E0E
100
AcDbEntity
  8
VHH-025
100
AcDbLine
 10
420.292175
 20
149.075112
 30
0.0
 11
427.866981
 21
151.832116
 31
0.0
  0
LINE
  5
E0F
100
AcDbEntity
  8
VHH-025
100
AcDbLine
 10
434.413528
 20
147.03044
 30
0.0
 11
432.393456
 21
154.569453
 31
0.0
  0
LINE
  5
E10
100
AcDbEntity
  8
VHH-025
100
AcDbLine
 10
414.899226
 20
148.631233
 30
0.0
 11
411.012194
 21
159.310766
 31
0.0
  0
ARC
  5
E11
100
AcDbEntity
  8
VHH-025
100
AcDbCircle
 10
428.659785
 20
154.601746
 30
0.0
 40
15.0
100
AcDbArc
 50
203.455344
 51
205.0
  0
ARC
  5
E12
100
AcDbEntity
  8
VHH-025
100
AcDbCircle
 10
423.544919
 20
168.734453
 30
0.0
 40
15.0
100
AcDbArc
 50
190.0
 51
200.0
  0
LINE
  5
E13
100
AcDbEntity
  8
VHH-025
100
AcDbLine
 10
411.012194
 20
159.310766
 30
0.0
 11
413.596349
 21
160.251321
 31
0.0
  0
LINE
  5
E14
100
AcDbEntity
  8
VHH-025
100
AcDbLine
 10
413.596349
 20
160.251321
 30
0.0
 11
413.854643
 21
160.345333
 31
0.0
  0
LINE
  5
E15
100
AcDbEntity
  8
VHH-025
100
AcDbLine
 10
411.012194
 20
159.310766
 30
0.0
 11
409.44953
 21
163.604151
 31
0.0
  0
LINE
  5
E16
100
AcDbEntity
  8
VHH-025
100
AcDbLine
 10
425.554058
 20
164.603571
 30
0.0
 11
428.396508
 21
165.638138
 31
0.0
  0
ARC
  5
E17
100
AcDbEntity
  8
VHH-025
100
AcDbCircle
 10
417.904568
 20
150.687168
 30
0.0
 40
15.0
100
AcDbArc
 50
15.0
 51
16.544656
  0
LINE
  5
E18
100
AcDbEntity
  8
VHH-025
100
AcDbLine
 10
432.28354
 20
154.958606
 30
0.0
 11
428.396508
 21
165.638138
 31
0.0
  0
LINE
  5
E19
100
AcDbEntity
  8
VHH-025
100
AcDbLine
 10
417.629955
 20
149.97275
 30
0.0
 11
410.58163
 21
169.337864
 31
0.0
  0
LINE
  5
E1A
100
AcDbEntity
  8
VHH-025
100
AcDbLine
 10
429.32937
 20
154.230989
 30
0.0
 11
422.281044
 21
173.596105
 31
0.0
  0
LINE
  5
E1B
100
AcDbEntity
  8
VHH-025
100
AcDbLine
 10
407.979331
 20
170.629731
 30
0.0
 11
408.772803
 21
166.129731
 31
0.0
  0
LINE
  5
E1C
100
AcDbEntity
  8
VHH-025
100
AcDbLine
 10
428.396508
 20
165.638138
 30
0.0
 11
426.833843
 21
169.931524
 31
0.0
  0
LINE
  5
E1D
100
AcDbEntity
  8
VHH-025
100
AcDbLine
 10
366.75049
 20
309.9001
 30
0.0
 11
406.97232
 21
309.9001
 31
0.0
  0
ARC
  5
E1E
100
AcDbEntity
  8
VHH-025
100
AcDbCircle
 10
403.47232
 20
272.9001
 30
0.0
 40
5.0
100
AcDbArc
 50
90.0
 51
180.0
  0
SPLINE
  5
E1F
100
AcDbEntity
  8
VHH-025
100
AcDbSpline
210
0.0
220
0.0
230
1.0
 70
     8
 71
     3
 72
    10
 73
     6
 74
     0
 42
0.0000001
 43
0.0000001
 40
0.0
 40
0.0
 40
0.0
 40
0.0
 40
11.92667232881905
 40
35.75119428423263
 40
48.71255416182851
 40
48.71255416182851
 40
48.71255416182851
 40
48.71255416182851
 10
362.6359546736293
 20
357.8132680252438
 30
0.0
 10
363.4575653486608
 20
353.9240337293258
 30
0.0
 10
365.9204118207726
 20
342.2657297953519
 30
0.0
 10
369.0401811154824
 20
326.312875829557
 30
0.0
 10
370.7237329472136
 20
314.1820714226805
 30
0.0
 10
371.2650226113237
 20
309.9001003629964
 30
0.0
  0
SPLINE
  5
E20
100
AcDbEntity
  8
VHH-025
100
AcDbSpline
210
0.0
220
0.0
230
-1.0
 70
     8
 71
     3
 72
    15
 73
    11
 74
     9
 42
0.0000001
 43
0.0000001
 44
0.0000000001
 40
0.0
 40
0.0
 40
0.0
 40
0.0
 40
2.462388634889559
 40
6.99878959940626
 40
11.4024480082334
 40
17.79316737322069
 40
20.98762315733974
 40
25.38980258838124
 40
31.28059065851953
 40
32.51837280800431
 40
32.51837280800431
 40
32.51837280800431
 40
32.51837280800431
 10
366.7504898447059
 20
309.9001003629964
 30
0.0
 10
366.5651840845697
 20
309.0990431867854
 30
0.0
 10
366.0384938585119
 20
306.8222171188132
 30
0.0
 10
365.9773856217692
 20
302.9959860357403
 30
0.0
 10
366.1573718427178
 20
297.8949423971969
 30
0.0
 10
366.6037630121612
 20
293.2474095342294
 30
0.0
 10
367.2293257568286
 20
288.6268647969673
 30
0.0
 10
368.0259482030186
 20
284.2011285171941
 30
0.0
 10
369.0699950541625
 20
280.4836138010641
 30
0.0
 10
369.9652893017414
 20
278.2823250979242
 30
0.0
 10
370.1207453334627
 20
277.9001003629964
 30
0.0
 11
366.7504898447059
 21
309.9001003629964
 31
0.0
 11
366.2551258811854
 21
307.4880530307745
 31
0.0
 11
366.0160349922953
 21
302.9579570872301
 31
0.0
 11
366.1702796049194
 21
298.5570008296526
 31
0.0
 11
366.7603518004543
 21
292.1935812453348
 31
0.0
 11
367.1945759550017
 21
289.0287752259555
 31
0.0
 11
367.9972950630235
 21
284.700400730062
 31
0.0
 11
369.6619098755345
 21
279.0496979761337
 31
0.0
 11
370.1207453334627
 21
277.9001003629964
 31
0.0
  0
SPLINE
  5
E21
100
AcDbEntity
  8
VHH-025
100
AcDbSpline
210
0.0
220
0.0
230
-1.0
 70
     8
 71
     3
 72
     9
 73
     5
 74
     3
 42
0.0000001
 43
0.0000001
 44
0.0000000001
 40
0.0
 40
0.0
 40
0.0
 40
0.0
 40
0.2961041595636031
 40
0.694275708566853
 40
0.694275708566853
 40
0.694275708566853
 40
0.694275708566853
 10
362.1489578121491
 20
358.2000001646129
 30
0.0
 10
362.2574545581803
 20
358.2027452313534
 30
0.0
 10
362.5118469832615
 20
358.209181591988
 30
0.0
 10
362.5907203147396
 20
357.9575692874324
 30
0.0
 10
362.6359546736293
 20
357.8132680252438
 30
0.0
 11
362.1489578121491
 21
358.2000001646129
 31
0.0
 11
362.4425216875333
 21
358.1612971365629
 31
0.0
 11
362.6359546736293
 21
357.8132680252438
 31
0.0
  0
LINE
  5
E22
100
AcDbEntity
  8
VHH-025
100
AcDbLine
 10
370.120745
 20
277.9001
 30
0.0
 11
373.47232
 21
277.9001
 31
0.0
  0
SPLINE
  5
E23
100
AcDbEntity
  8
VHH-025
100
AcDbSpline
210
0.0
220
0.0
230
-1.0
 70
     8
 71
     3
 72
    14
 73
    10
 74
     8
 42
0.0000001
 43
0.0000001
 44
0.0000000001
 40
0.0
 40
0.0
 40
0.0
 40
0.0
 40
2.53151096017144
 40
5.063021920342436
 40
10.16213907703986
 40
14.26825733465757
 40
17.84865899032139
 40
21.88850135563797
 40
24.42001231580881
 40
24.42001231580881
 40
24.42001231580881
 40
24.42001231580881
 10
399.5335936546053
 20
277.4262944762449
 30
0.0
 10
398.989663606971
 20
278.083369114898
 30
0.0
 10
397.9018035117027
 20
279.3975183922041
 30
0.0
 10
394.7753522675237
 20
280.9009180381258
 30
0.0
 10
390.8583316671766
 20
281.4176853226769
 30
0.0
 10
386.5842428731054
 20
281.4295185472673
 30
0.0
 10
382.7217756025561
 20
280.9573578994086
 30
0.0
 10
379.3743873747884
 20
279.7884030314071
 30
0.0
 10
377.9570527330673
 20
278.083198007799
 30
0.0
 10
377.4110467580376
 20
277.4262944762449
 30
0.0
 11
399.5335936546053
 21
277.4262944762449
 31
0.0
 11
397.7843502481355
 21
279.2562385317805
 31
0.0
 11
395.5433880181863
 21
280.433793636821
 31
0.0
 11
390.5253793351294
 21
281.3396549035124
 31
0.0
 11
386.4192610775117
 21
281.3396549035124
 31
0.0
 11
382.8725160471713
 21
280.8498838287887
 31
0.0
 11
379.1602901645055
 21
279.2562385317814
 31
0.0
 11
377.4110467580376
 21
277.4262944762449
 31
0.0
  0
LINE
  5
E24
100
AcDbEntity
  8
VHH-025
100
AcDbLine
 10
383.47232
 20
262.2001
 30
0.0
 11
383.47232
 21
257.1001
 31
0.0
  0
LINE
  5
E25
100
AcDbEntity
  8
VHH-025
100
AcDbLine
 10
393.47232
 20
262.2001
 30
0.0
 11
393.47232
 21
257.1001
 31
0.0
  0
LINE
  5
E26
100
AcDbEntity
  8
VHH-025
100
AcDbLine
 10
398.47232
 20
272.9001
 30
0.0
 11
398.47232
 21
262.2001
 31
0.0
  0
LINE
  5
E27
100
AcDbEntity
  8
VHH-025
100
AcDbLine
 10
378.47232
 20
272.9001
 30
0.0
 11
378.47232
 21
262.2001
 31
0.0
  0
LINE
  5
E28
100
AcDbEntity
  8
VHH-025
100
AcDbLine
 10
398.47232
 20
265.2001
 30
0.0
 11
378.47232
 21
265.2001
 31
0.0
  0
LINE
  5
E29
100
AcDbEntity
  8
VHH-025
100
AcDbLine
 10
398.47232
 20
262.2001
 30
0.0
 11
378.47232
 21
262.2001
 31
0.0
  0
ARC
  5
E2A
100
AcDbEntity
  8
VHH-025
100
AcDbCircle
 10
373.47232
 20
272.9001
 30
0.0
 40
5.0
100
AcDbArc
 50
360.0
 51
90.0
  0
LINE
  5
E2B
100
AcDbEntity
  8
VHH-025
100
AcDbLine
 10
439.97232
 20
293.9001
 30
0.0
 11
421.97232
 21
293.9001
 31
0.0
  0
LINE
  5
E2C
100
AcDbEntity
  8
VHH-025
100
AcDbLine
 10
439.97232
 20
276.441724
 30
0.0
 11
421.97232
 21
277.637216
 31
0.0
  0
LINE
  5
E2D
100
AcDbEntity
  8
VHH-025
100
AcDbLine
 10
439.97232
 20
279.178311
 30
0.0
 11
421.97232
 21
279.96833
 31
0.0
  0
LINE
  5
E2E
100
AcDbEntity
  8
VHH-025
100
AcDbLine
 10
439.97232
 20
282.427832
 30
0.0
 11
421.97232
 21
283.039522
 31
0.0
  0
LINE
  5
E2F
100
AcDbEntity
  8
VHH-025
100
AcDbLine
 10
439.97232
 20
286.040728
 30
0.0
 11
421.97232
 21
286.459782
 31
0.0
  0
LINE
  5
E30
100
AcDbEntity
  8
VHH-025
100
AcDbLine
 10
439.97232
 20
289.906231
 30
0.0
 11
421.97232
 21
290.11918
 31
0.0
  0
LINE
  5
E31
100
AcDbEntity
  8
VHH-025
100
AcDbLine
 10
439.97232
 20
297.893969
 30
0.0
 11
421.97232
 21
297.68102
 31
0.0
  0
LINE
  5
E32
100
AcDbEntity
  8
VHH-025
100
AcDbLine
 10
439.97232
 20
308.616537
 30
0.0
 11
421.97232
 21
307.831871
 31
0.0
  0
LINE
  5
E33
100
AcDbEntity
  8
VHH-025
100
AcDbLine
 10
439.97232
 20
305.372369
 30
0.0
 11
421.97232
 21
304.760679
 31
0.0
  0
LINE
  5
E34
100
AcDbEntity
  8
VHH-025
100
AcDbLine
 10
439.97232
 20
301.759472
 30
0.0
 11
421.97232
 21
301.340419
 31
0.0
  0
LINE
  5
E35
100
AcDbEntity
  8
VHH-025
100
AcDbLine
 10
439.97232
 20
315.172845
 30
0.0
 11
421.97232
 21
314.038604
 31
0.0
  0
LINE
  5
E36
100
AcDbEntity
  8
VHH-025
100
AcDbLine
 10
439.97232
 20
313.59681
 30
0.0
 11
421.97232
 21
312.546601
 31
0.0
  0
LINE
  5
E37
100
AcDbEntity
  8
VHH-025
100
AcDbLine
 10
439.97232
 20
311.387706
 30
0.0
 11
421.97232
 21
310.455285
 31
0.0
  0
ARC
  5
E38
100
AcDbEntity
  8
VHH-025
100
AcDbCircle
 10
442.621177
 20
156.422028
 30
0.0
 40
160.0
100
AcDbArc
 50
91.222951
 51
102.816696
  0
LINE
  5
E39
100
AcDbEntity
  8
VHH-025
100
AcDbLine
 10
405.47232
 20
277.9001
 30
0.0
 11
405.97232
 21
277.9001
 31
0.0
  0
LINE
  5
E3A
100
AcDbEntity
  8
VHH-025
100
AcDbLine
 10
403.47232
 20
277.9001
 30
0.0
 11
406.97232
 21
277.9001
 31
0.0
  0
ARC
  5
E3B
100
AcDbEntity
  8
VHH-025
100
AcDbCircle
 10
407.17232
 20
312.240572
 30
0.0
 40
0.2
100
AcDbArc
 50
102.816696
 51
180.0
  0
ARC
  5
E3C
100
AcDbEntity
  8
VHH-025
100
AcDbCircle
 10
439.22232
 20
315.635753
 30
0.0
 40
0.75
100
AcDbArc
 50
0.0
 51
91.222951
  0
LINE
  5
E3D
100
AcDbEntity
  8
VHH-025
100
AcDbLine
 10
441.90393
 20
313.849519
 30
0.0
 11
439.97232
 21
313.9001
 31
0.0
  0
LINE
  5
E3E
100
AcDbEntity
  8
VHH-025
100
AcDbLine
 10
439.97232
 20
272.627356
 30
0.0
 11
421.97232
 21
273.761597
 31
0.0
  0
LINE
  5
E3F
100
AcDbEntity
  8
VHH-025
100
AcDbLine
 10
439.97232
 20
274.203391
 30
0.0
 11
421.97232
 21
275.2536
 31
0.0
  0
ARC
  5
E40
100
AcDbEntity
  8
VHH-025
100
AcDbCircle
 10
442.621177
 20
431.378172
 30
0.0
 40
160.0
100
AcDbArc
 50
257.183304
 51
268.777049
  0
ARC
  5
E41
100
AcDbEntity
  8
VHH-025
100
AcDbCircle
 10
407.17232
 20
275.559629
 30
0.0
 40
0.2
100
AcDbArc
 50
180.0
 51
257.183304
  0
ARC
  5
E42
100
AcDbEntity
  8
VHH-025
100
AcDbCircle
 10
439.22232
 20
272.164447
 30
0.0
 40
0.75
100
AcDbArc
 50
268.777049
 51
0.0
  0
LINE
  5
E43
100
AcDbEntity
  8
VHH-025
100
AcDbLine
 10
441.90393
 20
273.950681
 30
0.0
 11
439.97232
 21
273.9001
 31
0.0
  0
LINE
  5
E44
100
AcDbEntity
  8
VHH-025
100
AcDbLine
 10
406.97232
 20
312.240572
 30
0.0
 11
406.97232
 21
275.559629
 31
0.0
  0
LINE
  5
E45
100
AcDbEntity
  8
VHH-025
100
AcDbLine
 10
441.97232
 20
273.964658
 30
0.0
 11
441.97232
 21
313.835543
 31
0.0
  0
ARC
  5
E46
100
AcDbEntity
  8
VHH-025
100
AcDbCircle
 10
412.039061
 20
293.9001
 30
0.0
 40
36.0
100
AcDbArc
 50
326.518915
 51
33.481085
  0
LINE
  5
E47
100
AcDbEntity
  8
VHH-025
100
AcDbLine
 10
439.97232
 20
272.164447
 30
0.0
 11
439.97232
 21
315.635753
 31
0.0
  0
SPLINE
  5
E53
100
AcDbEntity
  8
VHH-025
100
AcDbSpline
210
0.0
220
0.0
230
-1.0
 70
     8
 71
     3
 72
    11
 73
     7
 74
     5
 42
0.0000001
 43
0.0000001
 44
0.0000000001
 40
0.0
 40
0.0
 40
0.0
 40
0.0
 40
0.6268006055070936
 40
1.215244760831706
 40
1.618964794629464
 40
1.942964802856018
 40
1.942964802856018
 40
1.942964802856018
 40
1.942964802856018
 10
331.7368472090438
 20
446.1693733331467
 30
0.0
 10
331.6440948616715
 20
446.3658086994228
 30
0.0
 10
331.4642660561331
 20
446.746658761806
 30
0.0
 10
330.9135722139724
 20
446.9386325925927
 30
0.0
 10
330.4770762399271
 20
446.9532904826392
 30
0.0
 10
330.235342559831
 20
446.9273953489031
 30
0.0
 10
330.1277163989216
 20
446.9158661576493
 30
0.0
 11
331.7368472090438
 21
446.1693733331467
 31
0.0
 11
331.3964617080801
 21
446.6956971021309
 31
0.0
 11
330.8537077359596
 21
446.9230396843349
 31
0.0
 11
330.4505174163768
 21
446.9437141101889
 31
0.0
 11
330.1277163989216
 21
446.9158661576493
 31
0.0
  0
SPLINE
  5
E54
100
AcDbEntity
  8
VHH-025
100
AcDbSpline
210
0.0
220
0.0
230
-1.0
 70
     8
 71
     3
 72
    12
 73
     8
 74
     6
 42
0.0000001
 43
0.0000001
 44
0.0000000001
 40
0.0
 40
0.0
 40
0.0
 40
0.0
 40
0.2726448924860046
 40
0.7202654768540803
 40
1.190419341255433
 40
1.81124468762639
 40
1.828039750959963
 40
1.828039750959963
 40
1.828039750959963
 40
1.828039750959963
 10
333.2037229136367
 20
446.9775232621087
 30
0.0
 10
333.1503150021605
 20
447.0512721637349
 30
0.0
 10
333.0092235095734
 20
447.2460999021641
 30
0.0
 10
332.6785885267479
 20
447.486912175776
 30
0.0
 10
332.1692237823206
 20
447.6070348929846
 30
0.0
 10
331.7982168820008
 20
447.5776636675073
 30
0.0
 10
331.5865010914187
 20
447.5591311108143
 30
0.0
 10
331.5809244504307
 20
447.5586429591512
 30
0.0
 11
333.2037229136367
 21
446.9775232621087
 31
0.0
 11
333.0350509486652
 21
447.1917311182469
 31
0.0
 11
332.6732085327803
 21
447.4552349201485
 31
0.0
 11
332.2183236818691
 21
447.5740811595633
 31
0.0
 11
331.5976556437126
 21
447.5601062854111
 31
0.0
 11
331.5809244504307
 21
447.5586429591512
 31
0.0
  0
LINE
  5
E55
100
AcDbEntity
  8
VHH-025
100
AcDbLine
 10
354.57168
 20
393.596535
 30
0.0
 11
350.430372
 21
400.73552
 31
0.0
  0
LINE
  5
E56
100
AcDbEntity
  8
VHH-025
100
AcDbLine
 10
354.308945
 20
392.296453
 30
0.0
 11
353.426183
 21
391.630474
 31
0.0
  0
ARC
  5
E57
100
AcDbEntity
  8
VHH-025
100
AcDbCircle
 10
353.706685
 20
393.094754
 30
0.0
 40
1.0
100
AcDbArc
 50
307.031902
 51
30.117917
  0
SPLINE
  5
E58
100
AcDbEntity
  8
VHH-025
100
AcDbSpline
210
0.0
220
0.0
230
-1.0
 70
     8
 71
     3
 72
    15
 73
    11
 74
     9
 42
0.0000001
 43
0.0000001
 44
0.0000000001
 40
0.0
 40
0.0
 40
0.0
 40
0.0
 40
1.144127971795948
 40
1.57090036091718
 40
2.18903106992155
 40
6.495683490754759
 40
30.77369532626181
 40
53.3117455063217
 40
70.84691920112984
 40
80.20316918957931
 40
80.20316918957931
 40
80.20316918957931
 40
80.20316918957931
 10
359.1225203920985
 20
371.6391161154088
 30
0.0
 10
358.7533518002647
 20
371.7005563471755
 30
0.0
 10
358.2464792401604
 20
371.7849144650055
 30
0.0
 10
357.4916301490591
 20
371.9514785805616
 30
0.0
 10
356.7400997169162
 20
373.7332512751373
 30
0.0
 10
353.7038802728649
 20
382.5927485911045
 30
0.0
 10
349.021331492468
 20
399.3693916933061
 30
0.0
 10
342.3483399654149
 20
419.6319817349497
 30
0.0
 10
336.5369117865684
 20
435.0826193113351
 30
0.0
 10
332.9758399387503
 20
443.3076602442477
 30
0.0
 10
331.7368472090438
 20
446.1693733331485
 30
0.0
 11
359.1225203920985
 21
371.6391161154088
 31
0.0
 11
357.9965413967947
 21
371.842094237335
 31
0.0
 11
357.5932452812776
 21
371.9816897792588
 31
0.0
 11
357.2609156159469
 21
372.5028831857362
 31
0.0
 11
355.7883359571115
 21
376.5499517819244
 31
0.0
 11
348.7095934015687
 21
399.7730709203469
 31
0.0
 11
341.6536982213929
 21
421.1781649197964
 31
0.0
 11
335.4054713913447
 21
437.5623639538462
 31
0.0
 11
331.7368472090438
 21
446.1693733331485
 31
0.0
  0
ENDSEC
  0
SECTION
  2
OBJECTS
  0
DICTIONARY
  5
C
100
AcDbDictionary
  3
ACAD_GROUP
350
D
  3
ACAD_MLINESTYLE
350
E
  3
AMACAD
350
975
  0
DICTIONARY
  5
D
102
{ACAD_REACTORS
330
C
102
}
100
AcDbDictionary
  0
DICTIONARY
  5
E
102
{ACAD_REACTORS
330
C
102
}
100
AcDbDictionary
  3
STANDARD
350
1B
  0
DICTIONARY
  5
975
102
{ACAD_REACTORS
330
C
102
}
100
AcDbDictionary
  3
AM_LOADER
350
976
  0
MLINESTYLE
  5
1B
102
{ACAD_REACTORS
330
E
102
}
100
AcDbMlineStyle
  2
STANDARD
 70
     0
  3

 62
     0
 51
90.0
 52
90.0
 71
     2
 49
0.5
 62
   256
  6
BYLAYER
 49
-0.5
 62
   256
  6
BYLAYER
  0
AMLOADER
  5
976
102
{ACAD_REACTORS
330
975
102
}
100
AMLoader
 90
        1
 70
     3
 70
     0
 70
   921
 70
   861
280
     0
  0
ENDSEC
  0
EOF
